Oops, an error
Loading. Please wait.

Cocaine Acoustic tab

version 3
version 3

Whole song

by Nomy
292 views 1 this week
no commentswrite comment
1 2 3 4 5
3 more votes to show rating
add to favorites
×
Save as Personal and add changes to this tab that will be seen only by you. Learn more ›
×
You can save this tab as Personal to edit and correct it or add notes. All changes will be seen only by you. Learn more »
launch autoscroll
font size
0
reset
how to read this tab
guitar tuner
edit
Autoscroll
slow
fast
+/-
esc
set tempo
stop
Acoustic song link: https://www.youtube.com/watch?v=XGyDI1fwLoM

[INTRO]

e|-------------------------------|
B|-1-------1---1---1-------1---1-|
G|-----2-----2---2-----2-----2---|
D|-------------------------------|
A|-------------------------------|
E|-------------------------------|

Guitar 1
  Am                            C                             G
e|-0--0--0-----0-0-0-0--0--0-0-|-0--0--0-----0-0-0-0--0--0-0-|-3--3--3-----3-3-3-3--3--3-3-|
B|-1--1--1-----1-1-1-1--1--1-1-|-1--1--1-----1-1-1-1--1--1-1-|-3--3--3-----3-3-3-3--3--3-3-|
G|-2--2--2-----2-2-2-2--2--2-2-|-0--0--0-----0-0-0-0--0--0-0-|-0--0--0-----0-0-0-0--0--0-0-|
D|-2--2--2-----2-2-2-2--2--2-2-|-2--2--2-----2-2-2-2--2--2-2-|-0--0--0-----0-0-0-0--0--0-0-|
A|-0--0--0-----0-0-0-0--0--0-0-|-3--3--3-----3-3-3-3--3--3-3-|-2--2--2-----2-2-2-2--2--2-2-|
E|-----------------------------|-0--0--0-----0-0-0-0--0--0-0-|-3--3--3-----3-3-3-3--3--3-3-|

Guitar 2
e|-0----0----------------------|-0---0-----------------------|-0---0-----------------------|
B|---1-------------------------|---1-------------------------|---1---0---------------------|
G|--------2--------------------|-------0---------------------|-----------------------------|
D|-----------------------------|-----------------------------|-----------------------5-5-5-|
A|-----------------------------|-----------------------------|-----------------------5-5-5-|
E|-----------------------------|-----------------------------|-----------------------3-3-3-|

Guitar 1
  F
e|-0--0--0-----0-0-0-0--0--0-0-|
B|-1--1--1-----1-1-1-1--1--1-1-|
G|-2--2--2-----2-2-2-2--2--2-2-|
D|-3--3--3-----3-3-3-3--3--3-3-|
A|-0--0--0-----0-0-0-0--0--0-0-|
E|-----------------------------|

Guitar 2
e|---------------------------------|
B|---------------------------------|
G|---------4-4-4-4-5-5-5-5-7-7-7-7-|
D|-7-7-7-7-4-4-4-4-5-5-5-5-7-7-7-7-|
A|-7-7-7-7-2-2-2-2-3-3-3-3-5-5-5-5-|
E|-5-5-5-5-------------------------|


Guitar 1
  Am                            C                             G
e|-0--0--0-----0-0-0-0--0--0-0-|-0--0--0-----0-0-0-0--0--0-0-|-3--3--3-----3-3-3-3--3--3-3-|
B|-1--1--1-----1-1-1-1--1--1-1-|-1--1--1-----1-1-1-1--1--1-1-|-3--3--3-----3-3-3-3--3--3-3-|
G|-2--2--2-----2-2-2-2--2--2-2-|-0--0--0-----0-0-0-0--0--0-0-|-0--0--0-----0-0-0-0--0--0-0-|
D|-2--2--2-----2-2-2-2--2--2-2-|-2--2--2-----2-2-2-2--2--2-2-|-0--0--0-----0-0-0-0--0--0-0-|
A|-0--0--0-----0-0-0-0--0--0-0-|-3--3--3-----3-3-3-3--3--3-3-|-2--2--2-----2-2-2-2--2--2-2-|
E|-----------------------------|-0--0--0-----0-0-0-0--0--0-0-|-3--3--3-----3-3-3-3--3--3-3-|

Guitar 2
e|-----------------------------|----0--0---------------------|-0---0-----------------------|
B|-----------------------------|-1---------------------------|---1---0---------------------|
G|-----------------------------|-----------------------------|-----------------------------|
D|-----------------------------|-----------------------------|-----------------------------|
A|-----------------------------|-----------------------------|-----------------------------|
E|-----------------------------|-----------------------------|-----------------------------|

Guitar 1
  F
e|-0--0--0-----0-0-0-0--0--0-0-|
B|-1--1--1-----1-1-1-1--1--1-1-|
G|-2--2--2-----2-2-2-2--2--2-2-|
D|-3--3--3-----3-3-3-3--3--3-3-|
A|-0--0--0-----0-0-0-0--0--0-0-|
E|-----------------------------|

Guitar 2
e|-------0--------0------------|
B|----1--------1---------------|
G|-2------------------2h4p2----|
D|-----------------------------|
A|-----------------------------|
E|-----------------------------|

[VERSE]

Guitar 1
e|------------------------|-------0----------------|------------------------|-------0-----3-----5--0-|
B|-------1----------------|----1-------------------|----0--3----------------|----1-----1-----1-------|
G|----2-------------------|-0----------------------|-0----------------------|-2----------------------|
D|------------------------|------------------------|------------------------|------------------------| x2
A|------------------------|------------------------|------------------------|------------------------|
E|------------------------|------------------------|------------------------|------------------------|

Guitar 2
e|------------------------|-------0-----------0----|------------------------|-------0-----3-----5--0-|
B|-------1-----------1----|----1-----1-----1-----1-|----0--3--0-----0--3--0-|----1-----1-----1-------|
G|----2-----2-----2-----2-|-0-----------0----------|-0-----------0----------|-2----------------------|
D|-2-----------2----------|------------------------|------------------------|------------------------| x2
A|------------------------|------------------------|------------------------|------------------------|
E|------------------------|------------------------|------------------------|------------------------|

[PRE-CHORUS]

Guitar 1
e|---------------------------------|---------0---------------0-------|---------------------------------|
B|---------1---------------1-------|-----1-------1-------1-------1---|-----0---3---0-------0---5---0---|
G|-----2-------2-------2-------2---|-0---------------0---------------|-0---------------0---------------|
D|-2---------------2---------------|---------------------------------|---------------------------------|
A|---------------------------------|---------------------------------|---------------------------------|
E|---------------------------------|---------------------------------|---------------------------------|


Guitar 2
e|---------------------------------|---------------------------------|---------------------------------|
B|---------------------------------|-1---1---1---1---1---1---1---1---|-0---0---0---0-------------------|
G|-2---2---2---2---2---2---2---2---|---0---0---0---0---0---0---0---0-|---2---2---2---2-----------------|
D|---2---2---2---2---2---2---2---2-|---------------------------------|-----------------0---0---0---0---|
A|---------------------------------|---------------------------------|-------------------2---2---2---2-|
E|---------------------------------|---------------------------------|---------------------------------|


Guitar 1
e|---------------------------------|
B|---------1---------------1-------|
G|-----2-------2-------2-------2---|
D|-2---------------2---------------|
A|---------------------------------|
E|---------------------------------|


Guitar 2
e|---------------------------------|
B|---------------------------------|
G|-2---2---2---2---2---2---2---2---|
D|---2---2---2---2---2---2---2---2-|
A|---------------------------------|
E|---------------------------------|

[CHORUS]

  Am                F                 C                 G
e|-0---0---0---0-0-|-0-0-0---0---0-0-|-0---0---0---0-0-|-3-3-3---3---3-3-|
B|-1---1---1---1-1-|-1-1-1---1---1-1-|-1---1---1---1-1-|-3-3-3---3---3-3-|
G|-2---2---2---2-2-|-2-2-2---2---2-2-|-0---0---0---0-0-|-0-0-0---0---0-0-|
D|-2---2---2---2-2-|-2-2-2---2---2-2-|-2---2---2---2-2-|-0-0-0---0---0-0-| x6
A|-0---0---0---0-0-|-0-0-0---0---0-0-|-3---3---3---3-3-|-2-2-2---2---2-2-|
E|-----------------|-----------------|-0---0---0---0-0-|-3-3-3---3---3-3-|

  Am                F                 C                 G
e|-0---0---X-X-----|-0---0---X-X-----|-0---0---X-X-----|-3---3---X-X-----|
B|-1---1---X-X-----|-1---1---X-X-----|-1---1---X-X-----|-3---3---X-X-----|
G|-2---2---X-X-----|-2---2---X-X-----|-0---0---X-X-----|-0---0---X-X-----|
D|-2---2---X-X-----|-3---3---X-X-----|-2---2---X-X-----|-0---0---X-X-----| x2
A|-0---0---X-X-----|-0---0---X-X-----|-3---3---X-X-----|-2---2---X-X-----|
E|-----------------|-----------------|-0---0---X-X-----|-3---3---X-X-----|

[VERSE]

Guitar 1
e|------------------------|-------0----------------|------------------------|-------0-----3-----5--0-|
B|-------1----------------|----1-------------------|----0--3----------------|----1-----1-----1-------|
G|----2-------------------|-0----------------------|-0----------------------|-2----------------------|
D|------------------------|------------------------|------------------------|------------------------| x2
A|------------------------|------------------------|------------------------|------------------------|
E|------------------------|------------------------|------------------------|------------------------|

Guitar 2
e|------------------------|-------0-----------0----|------------------------|-------0-----3-----5--0-|
B|-------1-----------1----|----1-----1-----1-----1-|----0--3--0-----0--3--0-|----1-----1-----1-------|
G|----2-----2-----2-----2-|-0-----------0----------|-0-----------0----------|-2----------------------|
D|-2-----------2----------|------------------------|------------------------|------------------------| x2
A|------------------------|------------------------|------------------------|------------------------|
E|------------------------|------------------------|------------------------|------------------------|

[CHORUS]

BOTH GUITARS
  Am                F                 C                 G
e|-0---0---0---0-0-|-0-0-0---0---0-0-|-0---0---0---0-0-|-3-3-3---3---3-3-|
B|-1---1---1---1-1-|-1-1-1---1---1-1-|-1---1---1---1-1-|-3-3-3---3---3-3-|
G|-2---2---2---2-2-|-2-2-2---2---2-2-|-0---0---0---0-0-|-0-0-0---0---0-0-|
D|-2---2---2---2-2-|-2-2-2---2---2-2-|-2---2---2---2-2-|-0-0-0---0---0-0-| x5
A|-0---0---0---0-0-|-0-0-0---0---0-0-|-3---3---3---3-3-|-2-2-2---2---2-2-|
E|-----------------|-----------------|-0---0---0---0-0-|-3-3-3---3---3-3-|

Electric Guitar
e|-----------------|-----------------|-----------------|---------0-------|
B|-----------------|-----------------|-----------------|-------------3---|
G|-----------------|-----------------|-----------------|-----------------|
D|-----------------|-----------------|-----------------|-----------------|
A|-----------------|-----------------|-----------------|-----------------|
E|-----------------|-----------------|-----------------|-----------------|

BOTH GUITARS
  Am                F                 C                 G
e|-0---0---0---0-0-|-0-0-0---0---0-0-|-0---0---0---0-0-|-3-3-3---3---3-3-|
B|-1---1---1---1-1-|-1-1-1---1---1-1-|-1---1---1---1-1-|-3-3-3---3---3-3-|
G|-2---2---2---2-2-|-2-2-2---2---2-2-|-0---0---0---0-0-|-0-0-0---0---0-0-|
D|-2---2---2---2-2-|-2-2-2---2---2-2-|-2---2---2---2-2-|-0-0-0---0---0-0-| 
A|-0---0---0---0-0-|-0-0-0---0---0-0-|-3---3---3---3-3-|-2-2-2---2---2-2-|
E|-----------------|-----------------|-0---0---0---0-0-|-3-3-3---3---3-3-|

Electric Guitar
e|---------------1-|---------1---0---|---------0-------|-----------------|
B|-1-----------1---|-----------------|-----------3-----|-----------1-----|
G|-----------------|-----------------|-----------------|---------2---2-2-|
D|-----------------|-----------------|-----------------|-----------------|
A|-----------------|-----------------|-----------------|-----------------|
E|-----------------|-----------------|-----------------|-----------------|

BOTH GUITARS
  Am                F                 C                 G
e|-0---0---0---0-0-|-0-0-0---0---0-0-|-0---0---0---0-0-|-3-3-3---3---3-3-|
B|-1---1---1---1-1-|-1-1-1---1---1-1-|-1---1---1---1-1-|-3-3-3---3---3-3-|
G|-2---2---2---2-2-|-2-2-2---2---2-2-|-0---0---0---0-0-|-0-0-0---0---0-0-|
D|-2---2---2---2-2-|-2-2-2---2---2-2-|-2---2---2---2-2-|-0-0-0---0---0-0-|
A|-0---0---0---0-0-|-0-0-0---0---0-0-|-3---3---3---3-3-|-2-2-2---2---2-2-|
E|-----------------|-----------------|-0---0---0---0-0-|-3-3-3---3---3-3-|

Electric Guitar
e|-----------------|-----------------|-----------------|-----------------|
B|-----------------|-----------------|-----------------|-----------------|
G|-----------------|---2---0---------|-----------------|-------------0-2-|
D|-----------------|---------3-2-0---|-----------0-2-3-|-------0-2-3-----|
A|-----------------|---------------3-|---0---2-3-------|-0-2-3-----------|
E|-----------------|-----------------|-----------------|-----------------|

BOTH GUITARS
  Am                F                 C                 G
e|-0---0---0---0-0-|-0-0-0---0---0-0-|-0---0---0---0-0-|-3-3-3---3---3-3-|
B|-1---1---1---1-1-|-1-1-1---1---1-1-|-1---1---1---1-1-|-3-3-3---3---3-3-|
G|-2---2---2---2-2-|-2-2-2---2---2-2-|-0---0---0---0-0-|-0-0-0---0---0-0-|
D|-2---2---2---2-2-|-2-2-2---2---2-2-|-2---2---2---2-2-|-0-0-0---0---0-0-|
A|-0---0---0---0-0-|-0-0-0---0---0-0-|-3---3---3---3-3-|-2-2-2---2---2-2-|
E|-----------------|-----------------|-0---0---0---0-0-|-3-3-3---3---3-3-|

[BRIDGE]

Guitar 1
e|---------------------------------|---------0---------------0-------|---------------------------------|
B|---------1---------------1-------|-----1-------1-------1-------1---|-----0---3---0-------0---5---0---|
G|-----2-------2-------2-------2---|-0---------------0---------------|-0---------------0---------------|
D|-2---------------2---------------|---------------------------------|---------------------------------|
A|---------------------------------|---------------------------------|---------------------------------|
E|---------------------------------|---------------------------------|---------------------------------|


Guitar 2
e|---------------------------------|---------------------------------|---------------------------------|
B|---------------------------------|-1---1---1---1---1---1---1---1---|-0---0---0---0-------------------|
G|-2---2---2---2---2---2---2---2---|---0---0---0---0---0---0---0---0-|---2---2---2---2-----------------|
D|---2---2---2---2---2---2---2---2-|---------------------------------|-----------------0---0---0---0---|
A|---------------------------------|---------------------------------|-------------------2---2---2---2-|
E|---------------------------------|---------------------------------|---------------------------------|

Guitar 1
e|---------------------------------|
B|---------1---------------1-------|
G|-----2-------2-------2-------2---|
D|-2---------------2---------------|
A|---------------------------------|
E|---------------------------------|


Guitar 2
e|---------------------------------|
B|---------------------------------|
G|-2---2---2---2---2---2---2---2---|
D|---2---2---2---2---2---2---2---2-|
A|---------------------------------|
E|---------------------------------|

[CHORUS]

BOTH GUITARS
  Am                F                 C                 G
e|-0---0---0---0-0-|-0-0-0---0---0-0-|-0---0---0---0-0-|-3-3-3---3---3-3-|
B|-1---1---1---1-1-|-1-1-1---1---1-1-|-1---1---1---1-1-|-3-3-3---3---3-3-|
G|-2---2---2---2-2-|-2-2-2---2---2-2-|-0---0---0---0-0-|-0-0-0---0---0-0-|
D|-2---2---2---2-2-|-2-2-2---2---2-2-|-2---2---2---2-2-|-0-0-0---0---0-0-| x6
A|-0---0---0---0-0-|-0-0-0---0---0-0-|-3---3---3---3-3-|-2-2-2---2---2-2-|
E|-----------------|-----------------|-0---0---0---0-0-|-3-3-3---3---3-3-|

BOTH GUITARS
  Am                F                 C                 G
e|-0---0---X-X-----|-0---0---X-X-----|-0---0---X-X-----|-3---3---X-X-----|
B|-1---1---X-X-----|-1---1---X-X-----|-1---1---X-X-----|-3---3---X-X-----|
G|-2---2---X-X-----|-2---2---X-X-----|-0---0---X-X-----|-0---0---X-X-----|
D|-2---2---X-X-----|-3---3---X-X-----|-2---2---X-X-----|-0---0---X-X-----| x2
A|-0---0---X-X-----|-0---0---X-X-----|-3---3---X-X-----|-2---2---X-X-----|
E|-----------------|-----------------|-0---0---X-X-----|-3---3---X-X-----|


************************************

| x   Dead note
| h   Hammer-on
| p   Pull-off

************************************

            
            
Suggest correction
Creating personal tab
Creating personal tab
You can edit any tab online and save it as your Personal.

You can edit, replace or remove any tab part or add personal notes – all changes will be seen only by you.

Personal tabs can be accessed anytime from any device, even offline.
Learn more »
Give kudos to tab author, rate the tab!
1 2 3 4 5
comments
print report bad tab
guest
You may want to rate the tab now too:
select rating
Wanna post a correction for this tab? Suggest correction