Oops, an error
Loading. Please wait.

Antinazis tab

360 views 1 this week
no commentswrite comment
1 2 3 4 5
3 more votes to show rating
add to favorites
×
Save as Personal and add changes to this tab that will be seen only by you. Learn more ›
×
You can save this tab as Personal to edit and correct it or add notes. All changes will be seen only by you. Learn more »
launch autoscroll
font size
0
reset
how to read this tab
guitar tuner
edit
Autoscroll
slow
fast
+/-
esc
set tempo
stop
INTRO:
D5  E7 X4

AKI EL BAJO EMPIEZA:
E7
DESDE SIEMPRE HE INTENTADO
G7                              D5 E7
AUTOEDUCARME A CONCIENCIA PARA TENER CLARO QUIÉN ES MI ENEMIGO
E7
DISPUTADAS MIL BATALLAS, MIL ENFRENTAMIENTOS
G7                              D5 E7
MIL PATADAS RECIBIDAS POR LA ESPALDA
E7
DESDE SIEMPRE HE DISTINGUIDO
G7                              D5 E7
LO QUE DIFERENCIA A NUESTRA GENTE DE LAS MODAS Y LOS CAMBIOS
E7
CONSTRUYENDO UNA FAMILIA BASADA EN LA CONFIANZA
G7                              D5 E7
Y EN EL RESPETO DE QUIÉN SON LOS NUESTROS

LUEGO VIENE ALGO ASI:
LINK1
E|--------------------------|-----------------------------|
B|--------------------------|-----------------------------|
G|--------------------------|-----------------------------|
D|----9-----9-------9-----9-|----9----9------9--------9---|
A|-7-----7-----7-7----7-7---|-10---10---10-10---10-10-----|
E|--------------------------|-----------------------------|

E|--------------------------|-----------------------------|
B|--------------------------|-----------------------------|
G|--------------------------|-----------7----7-8-7-9------|
D|---5-----5-5----5-----5---|----9----9----9--------------|
A|-5---5-5-----5-5--5-5-----|-7---7-----------------------|
E|--------------------------|-----------------------------|

LO MISMO DEL PRIMER VERSO
Y AHORA TIENES QUE AGUANTAR CON MIRADA DE IMPOTENCIA
COMO EL SUDOR QUE DERRAMASTE FUE EN VANO
QUE LAS HOSTIAS REPARTIDAS HAN PERDIDO SU SENTIDO
DEJANDO AUN LADO LO QUE ES LA COHERENCIA

SEGUIREMOS PELEANDO UNA VEZ MÁS
SIN OLVIDAR QUIEN ES NUESTRO RIVAL
ESCUCHAREMOS LA VOZ DE NUESTRO INTERIOR
QUE NOS RECUERDA QUE SOMOS ANTINAZIS

LINK 1 X1

SOLO:
E|--------------------------|------------------------------------|
B|--------------------------|------------------------------------|
G|---9-9-9-7-9-9-9-7-9-9-9--|--7---------------------------------|
D|--------------------------|----9-7-------------9-9-9-----------|
A|--------------------------|--------10-10-10-10-------10-9------|
E|--------------------------|------------------------------10----|

|-----------------------------|
|-----------------------------|
|-----------7----7-8-7-9------|
|----9----9----9--------------|
|-7---7-----------------------|
|-----------------------------|

SIGUEN LOS MISMO ACORDES DEL PRINCIPIO

DECANTADOS POR EL ANTIFASCISMO
ORGULLOSOS DEL ANTICONFORMISMO
QUE LLEVAMOS GRABADO EN EL CORAZÓN
Y ES QUE NUNCA NOS ARREPENTIREMOS
DE QUIÉN FUIMOS, SOMOS Y SEREMOS
NON SERVIUM,NON SERVIUM
ANTINAZIS!!!
SEGUIREMOS PELEANDO UNA VEZ MÁS
SIN OLVIDAR QUIÉN ES NUESTRO RIVAL
ESCUCHAREMOS LA VOZ DE NUESTRO INTERIOR
QUE NOS RECUERDA
QUE SOMOS ANTINAZIS

BUENO AKI TERMINA LA CANCION ES SIEMPRE CON LOS MISMO ACORDES ,
COMO PUDIERON VER , Y NO TIENE KIEBRES BRUSCOS,
 BUENO PARA CUALKEIR CONSULTA HAGANMELA SABER A MI MAIL
PKK_APOSTATA@

            
            
Suggest correction
Creating personal tab
Creating personal tab
You can edit any tab online and save it as your Personal.

You can edit, replace or remove any tab part or add personal notes – all changes will be seen only by you.

Personal tabs can be accessed anytime from any device, even offline.
Learn more »
Give kudos to tab author, rate the tab!
1 2 3 4 5
comments
print report bad tab
guest
Wanna post a correction for this tab? Suggest correction