Oops, an error
Loading. Please wait.

Cambio De Orden tab

209 views 1 this week
no commentswrite comment
1 2 3 4 5
3 more votes to show rating
add to favorites
×
Save as Personal and add changes to this tab that will be seen only by you. Learn more ›
×
You can save this tab as Personal to edit and correct it or add notes. All changes will be seen only by you. Learn more »
launch autoscroll
font size
0
reset
how to read this tab
guitar tuner
edit
Autoscroll
slow
fast
+/-
esc
set tempo
stop
INTRO:

Segunda guitarra : E5 - C5 - D5 - E5 Marcando los compases y luego
                                     rasgueando con palm mute
Primera Guitarra:

e--------------------------------------------------------------------------
b--------------------------------------------------------------------------
g--------------------------------------------------------------------------
d-9-------9--7--5--5-------9--7--5--7------9--7--5--9-------10-9----10-9---
a---7--7-------------3--3-------------5--5-------------7--7------10------10
E--------------------------------------------------------------------------

Luego puntean esto 2 vueltas con palm mute, pero cada nota repetidas veces:
(  ) Significa varias veces

e---------------------------------------------------------------------------
b---------------------------------------------------------------------------
g---------------------------------------------------------------------------
d-------9()--7()--5()-----9()--7()--5()------9()--7()--5()----10-9----10-9--
a---7()---------------3()---------------5()----------------7()----10------10
E---------------------------------------------------------------------------

Puntear una tercera vuelta, pero ya sin palm mute:

e---------------------------------------------------------------------------
b---------------------------------------------------------------------------
g---------------------------------------------------------------------------
d-------9()--7()--5()-----9()--7()--5()------9()--7()--5()----10-9----10-9--
a---7()---------------3()---------------5()----------------7()----10------10
E---------------------------------------------------------------------------

E5                      C5
Quien ha escrito lo que has de hacer como has de vivir
D5                           B5       B5-C5-D5
quien pone pautas en tu vida quien te marca el ritmo
E5                      C5
Quien te juzga y te condena quien te pone esas barreras
D5                   B5       B5-C5-D5
quien atenta contra tu razón de ser

E5                         C5
Son los mismos que torturan son aquellos que especulan
D5                    B5       B5-C5-D5
te arrebatan el derecho a protestar
E5                         C5
Con sus siervos de la autoridad, perros de la ley
D5                    B5       B5-C5-D5
los mismos que jamás podrán hacer callar tu ira

e----------------------
b----------------------
g----------------------
d--9-10-9------9-------
a---------10-----------
E----------------------

E5 - C5 - D5 - B5 - B5-C5-D5  2 vueltas

E5                         C5
Ni tus perros policías, ni tus leyes asesinas
D5                    B5            B5-C5-D5
jamás podrán quitarnos el derecho a protestar
E5                         C5
nosotros somos la base de este mundo tan absurdo
D5                    B5         B5-C5-D5
nosotros producimos vuestras miserables vidas

CORO:

Esto acompaña al coro:

E5                         C5

e--------------------------------------
b--------------------------------------
g--9-9-9-11-9---9-9-12-12-12-12-14-12--
d--------------------------------------
a--------------------------------------
E--------------------------------------

D5                    B5            B5-C5-D5
Desafiando a lo indesafiable

E5                         C5

e--------------------------------------
b--------------------------------------
g--9-9-9-11-9---9-9-12-12-12-12-14-12--
d--------------------------------------
a--------------------------------------
E--------------------------------------


D5                    B5            B5-C5-D5
Y controlando lo incontrolable

Luego viene esto:

e----------------------------------------------------------------------
b----------------------------------------------------------------------
g--9-9-9-11-9---9-9-12-12-12-12-14-12--12-14-14-14-12-14---16-16-16-16-
d----------------------------------------------------------------------
a----------------------------------------------------------------------
E----------------------------------------------------------------------

e-----------------------------------------------------------------------
b-----------------------------------------------------------------------
g--9-9-9-11-9---9-9-12-12-12-12-14-12--12-14-14-14-12-14---16-16-14-12-9
d-----------------------------------------------------------------------
a-----------------------------------------------------------------------
E-----------------------------------------------------------------------

E5                         C5
Es el movimiento obrero quien levanta el puto imperio
D5                    B5            B5-C5-D5
del que luego otros mas tarde presumirán
E5                         C5
Creadores de miseria, a quien queréis desafiar
D5                    B5            B5-C5-D5
puedes encerrarnos, pero nunca nos controlarán

CORO:

E5                         C5

e--------------------------------------
b--------------------------------------
g--9-9-9-11-9---9-9-12-12-12-12-14-12--
d--------------------------------------
a--------------------------------------
E--------------------------------------

D5                    B5            B5-C5-D5
Desafiando a lo indesafiable

E5                         C5

e--------------------------------------
b--------------------------------------
g--9-9-9-11-9---9-9-12-12-12-12-14-12--
d--------------------------------------
a--------------------------------------
E--------------------------------------


D5                    B5            B5-C5-D5
Y controlando lo incontrolable

DEJAR AL BAJO SOLO, LUEGO:

e---------
b---------
g--7-7-9-
d--7-7-9-
a--5-5-7-
E---------

e------------------------------------------------
b------------------------------------------------
g--9-12-14-12-9-5---7-9-12-14-12-9-9-12-14-12-9--
d--9-12-14-12-9-5---7-9-12-14-12-9-9-12-14-12-9--
a--7-10-12-10-7-3---5-7-10-12-10-7-7-10-12-10-7--
E------------------------------------------------

Esta estrofa, se hace con Palm - mute

Acompaña un punteo:


e---------------
b---------------
g--9-9-9-9-9... Repetidas veces
d--------------
a--------------
E--------------

E5                         C5
Son pocas alternativas las que te van a dejar
D5                    B5
si estas con ellos estas contra los demás
E5                         C5
masas ineptas os dejáis encasillar
D5                    B5
en el rebaño de la falsa libertad

Aquí se deja el palm - mute y se rasguea
un poco más lento de lo normal

E5                         C5
Llegara el día en el que tendréis que pagar
D5                        B5
un impuesto tan solo para respirar
E5                         C5
hacernos fuertes en nuestra prioridad
D5                    B5
cambio de orden los de abajo reinarán


E5         E5 E5                C5 C5 C5
Los gobernados son quien deben gobernar
D5  D5 D5         B5       B5 B5 B5 B5-C5-D5
es nuestro mundo, no nos lo pueden quitar
E5         E5 E5                C5 C5 C5
un fuerte bloque que debemos destrozar
D5  D5 D5         B5       B5 B5 B5 B5-C5-D5
tú lo levantas, tú lo puedes derribar


E5                         C5
Un día todos tus sueños se desvanecerán
D5                        B5
no te quedes ahí sentado mientras luchan los demás
E5                         C5
únete a la revuelta, vive de forma ilegal
D5                        B5
unidos para ser fuertes, para acabar con ellos

E5                         C5
Eo eeee No nos váis a vencer
D5                        B5
Eo eeee Jamás nos callaréis
E5                         C5
Eo eeee Vamos a darle vuelta
D5                        B5
Eo eeeee A este puto orden social
E5                         C5
Eo eeeeeeeee eoeo eeeeeee
D5                        B5
Eo eeeeeeeee eoeo eeeeeee
E5                         C5
Eo eeeeeeeee eoeo eeeeeee
D5                        B5            B5-C5-D5  E5
Eo eeeeeeeee eoeo eeeeeee

            
            
Suggest correction
Creating personal tab
Creating personal tab
You can edit any tab online and save it as your Personal.

You can edit, replace or remove any tab part or add personal notes – all changes will be seen only by you.

Personal tabs can be accessed anytime from any device, even offline.
Learn more »
Give kudos to tab author, rate the tab!
1 2 3 4 5
comments
print report bad tab
guest
Wanna post a correction for this tab? Suggest correction