Oops, an error
Loading. Please wait.

El Dinero tab

222 views 1 this week
no commentswrite comment
1 2 3 4 5
3 more votes to show rating
add to favorites
×
Save as Personal and add changes to this tab that will be seen only by you. Learn more ›
×
You can save this tab as Personal to edit and correct it or add notes. All changes will be seen only by you. Learn more »
launch autoscroll
font size
0
reset
how to read this tab
guitar tuner
edit
Autoscroll
slow
fast
+/-
esc
set tempo
stop
Empieza con la intro del bajo:
LA
Seres insignificantes incapaces de entender,
FA        MI               RE
mentes deformes presas de una condición?

    LA
¡Soy el dinero!
Acordes.
SOL-LA-DO-LA-DO-FA-SOL-LA.
Eskuxando el tema van a tazar al toke

SOL - LA        DO - LA        DO - FA   SOL - LA
Tantas vidas desperdiciadas mil años de luchas de fe
Malgastando el tiempo buscando respuesta?

FA          SOL        LA   SOL-LA    FA   SOL   LA-DO  LA-DO
El secreto de la vida esta enterrado, esta enterrado ¡en un papel!
Soy el poder q todo lo domina?

Aki los mismos akordes SOL-LA-DO-LA-DO-FA-SOL-LA.
Tengo el poder de provocar?

Punteito:

E-----------------------------------------------------
B-----------------------------------------------------
G------------------------------5-5--7-5-4-------------
D-7-9-10-9-10-9-12-10-9-10-7-5-----5------------------
A-----------------------------------------------------
E-----------------------------------------------------

E-----------------------------------------------------
B-----------------------------------------------------
G----------------------------5-5---7-5-4--------------
D-7-7-9-7-9-7-10-9-7-9-7-5-3-----5--------------------
A-----------------------------------------------------
E-----------------------------------------------------

E-----------------------------------------------------
B---------------------------6-6---8-6-5---------------
G--7-9-7-9-7-10-9-7-9-7-5-5-----5---------------------
D-7---------------------------------------------------
A-----------------------------------------------------
E-----------------------------------------------------

E-----------------------------------------------------
B---------------------------6-6---8-6-5---------------
G--7-9-7-9-7-10-9-7-9-7-5-5-----5---------------------
D-7---------------------------------------------------
A-----------------------------------------------------
E-----------------------------------------------------

E-----------------------------------------------------
B-5-10-8-10-8-10-8-13-10-13-10-13-10-6-6-8-6-8-8-10-8-
G-----------------------------------------------------
D-----------------------------------------------------
A-----------------------------------------------------
E-----------------------------------------------------


E-----------------------------------------------------
B-5-10-8-10-8-10-8-13-10-13-10-13-10-6-6-8-6-8-8-10-8-
G-----------------------------------------------------
D-----------------------------------------------------
A-----------------------------------------------------
E-----------------------------------------------------

E-----------------------------------------------------
B---------------------------6-6---8-6-5---------------
G--7-9-7-9-7-10-9-7-9-7-5-5-----5---------------------
D-7---------------------------------------------------
A-----------------------------------------------------
E-----------------------------------------------------

E---------------------------------------5-------------
B---------------------------6-6---8-6-5---------------
G--7-9-7-9-7-10-9-7-9-7-5-5-----5---------------------
D-7---------------------------------------------------
A-----------------------------------------------------
E-----------------------------------------------------

Haaaaaaaaaaaaaaaaaa!
Akordes?
LA-SOL-LA-DO-LA-SOL-FA-SOL.
De mi dependen todas vuestras miserables vidas
Vidas de eskinas entre tanta oskuridad?

LA-SOL-LA
Yaaaaaaaaaaaaaa
2º punteito:

E----------------------------
B----------------------------
G----------------------------
D----------------------------
A-----7-8-7---------0--------
E-5-5-------8-7-8-7---3-5----

Se repite como 6 veces y después con la segunda guitarra

LA???-FA-SOL
Vuestro?


X MI
Kambio de ritmo
La????FA-SOL.
3º punteito:

E-----------------------------------------
B-----------------------------------------
G-----------------------------------------
D-----------------------------------------
A-0-5-7-5-7-8-7-5-7-3-------3-------------
E---------------------3-5-5---3-5-7-7-3-5-


LA                      FA             SOL
El progreso ha empezado avanza no se puede parar
LA                      FA             SOL
Soy quien manda, soy el dinero soy la destrucción mundial.

Jamás?

LA      FA          SOL
Soy la destrucción mundial

Aki se repite el punteo
La otra guitarra con riff terminando el tema.


Peazo de tema un poko largo pero espero q no tengan problemas para sakarlo
esta es la manera mas facil y na po a puro eskuxar oi!
Un saludos de $hile para todos
Pernobukes al mando
Nos vemos xao
Kualkier duda o pregunta hacerla a mi mail
¡salud!
titipunkXpirulo21

            
            
Suggest correction
Creating personal tab
Creating personal tab
You can edit any tab online and save it as your Personal.

You can edit, replace or remove any tab part or add personal notes – all changes will be seen only by you.

Personal tabs can be accessed anytime from any device, even offline.
Learn more »
Give kudos to tab author, rate the tab!
1 2 3 4 5
comments
print report bad tab
guest
Wanna post a correction for this tab? Suggest correction