Oops, an error
Loading. Please wait.

Nuestra Lucha tab

203 views 1 this week
no commentswrite comment
1 2 3 4 5
3 more votes to show rating
add to favorites
×
Save as Personal and add changes to this tab that will be seen only by you. Learn more ›
×
You can save this tab as Personal to edit and correct it or add notes. All changes will be seen only by you. Learn more »
launch autoscroll
font size
0
reset
how to read this tab
guitar tuner
edit
Autoscroll
slow
fast
+/-
esc
set tempo
stop
La primera guitarra hace los akordes:

e|-----------------------------------------------------
b|-----------------------------------------------------
g|-9------------9-----------9-----------------5--------
d|-9------------9-----------9-----------------5--------
a|-7------------7-----------7-----------------3--------
E|-----------------------------------------------------

Mientras la 2ª guitarra hace un punteado, algo asi:

e|-------------------------------------------------------|
b|-------------------------------------------------------|
g|------------9-----------9--------------5-------------7-|
d|9-9-10-9----9-9-10-9----9--9-9-10-9----5--9-9-10-9---7-|
a---------10--7--------10-7----------10--3----------10-5-|
e|-------------------------------------------------------|

1ª guitarra

e|---------------------------------------------------------|
b|---------------------------------------------------------|
g|-7------------9------------9----------5-----------7----9-|
d|-7------------9------------9----------5-----------7----9-|
a|-5------------7------------7----------3-----------5----7-|
e|---------------------------------------------------------|
2ª guitarra

b|-----------------------------------------------------------|
g|--------------9------------9----------5------------7-------|
d|-9-9-10-9-----9-9-9-10-9---9-9-10-9---5-9-9-10-9---7-------
a|----------10--7---------10-7-------10-3---------10-5-------|
e|-----------------------------------------------------------|

después, la 1ª guitarra hace:

e|----------------------------------------------------------|
b|----------------------------------------------------------|
g|-9-9-9-9-9-9-9-9-9-9-9-9-9-9-9-9-9-9-9-9-9-9-9-9-9-9-9-9-9|
d|-9-9-9-9-9-9-9-9-9-9-9-9-9-9-9-9-9-9-9-9-9-9-9-9-9-9-9-9-9|
a|-7-7-7-7-7-7-7-7-7-7-7-7-7-7-7-7-7-7-7-7-7-7-7-7-7-7-7-7-7|
e|----------------------------------------------------------|
    (PM)     (PM)   (PM)    (PM) ???????????????????????..

1ªguitarra
e|-----------------------------------------------------------|
b|-----------------------------------------------------------|
g|-9-9-9-9-9-9-9-9-9-9-5-5-5-5-5-5-5-5-5-5-9-9-9-9-9-9-9-9-9--
d|-9-9-9-9-9-9-9-9-9-9-5-5-5-5-5-5-5-5-5-5-9-9-9-9-9-9-9-9-9-|
a|-7-7-7-7-7-7-7-7-7-7-3-3-3-3-3-3-3-3-3-3-7-7-7-7-7-7-7-7-7-|
e|-----------------------------------------------------------|

2ªguitarra
Hace estos akordes

e|-----------------------------------------------------|
b|-----------------------------------------------------|
g|-9---9-9-7-9---9-9-7-5--5-5-9-7--7-7-12-9------------|
d|-9---9-9-7-9---9-9-7-5--5-5-9-7--7-7-12-9------------|
a|-7---7-7-5-7---7-7-5-3--3-3-7-5--5-5-10-7------------|
e|-----------------------------------------------------|

Estos son todos los acordes de la cancion

cualkier duda escribir a mi correo casalties_rodrigo@
o si sacan otras de NON para ke me las pasen
Suggest correction
Creating personal tab
Creating personal tab
You can edit any tab online and save it as your Personal.

You can edit, replace or remove any tab part or add personal notes – all changes will be seen only by you.

Personal tabs can be accessed anytime from any device, even offline.
Learn more »
Give kudos to tab author, rate the tab!
1 2 3 4 5
comments
print report bad tab
guest
Wanna post a correction for this tab? Suggest correction