Oops, an error
Loading. Please wait.

Ratas chords

113 views 1 this week
no commentswrite comment
1 2 3 4 5
3 more votes to show rating
add to favorites
×
Save as Personal and add changes to this tab that will be seen only by you. Learn more ›
×
You can save this tab as Personal to edit and correct it or add notes. All changes will be seen only by you. Learn more »
launch autoscroll
font size
0
reset
transpose
0
reset
display chords
guitar tuner
edit
Autoscroll
slow
fast
+/-
esc
set tempo
stop
Strumming
There is no strumming pattern for this song yet. and get +5 IQ
(intro)
|-----------------------------------------------------------------|
|-----------------------------------------------------------------|
|-----------------------------------------------------------------|
|-------------0-0-2-2-0-0---------------------0-0-2-2-0-0---------|
|-0-0-2-2-3-3-------------3-3-2-2-----2-2-3-3-------------3-3-2-2-|
|---------------------------------3-3-----------------------------|

|-----------------------------------------------------------------|
|-----------------------------------------------------------------|
|-----------------------------------------------------------------|
|-------------0-0-2-2-0-0---------------------0-0-2-2-3-3-2-2-0-0-|
|-----2-2-3-3-------------3-3-2-2-----2-2-3-3---------------------|
|-1-1-----------------------------3-3-----------------------------|
___________________________________________________________________


A   G   F    G

A                       C-F                G
SOMOS HIJOS DE LA IRA Y DE LA AGRESIVIDAD
                    A
CÚMULO DE INDIFERENCIA HACIA LO ESTABLECIDO
A                  C-F
NO SOMOS LOS NIÑOS RICOS DE UNIVERSIDAD
G

SOMOS UN VENENO PURO
A                 GGG
RATAS DE CIUDAD


A                C-F             F-C-G
RATAS DE CIUDAD, RATAS DE CIUDAD
            C-B-G A                     GGG
VIVIMOS SUMERGIDAS ENCERRADAS EN UN BAR
A                C-F             F-C-G
RATAS DE CIUDAD, RATAS DE CIUDAD
            C-B-G A                           GGG
LA VIDA NOS DIO UN RUMBO Y NOS QUISIMOS DESVIAR

A                C-F             F-C-G
NO ENTENDEMOS LOS VALORES DEL ESTADO
            C-B-G A                     GGG
PERO NOS CAGAMOS EN TODOS SUS CIUDADANOS
A                        C-F             F-C-G
NO SOMOS MUCHOS, PERO SOMOS LOS MÁS TERCOS
            C-B-G A                     GGG
Y SI NOS JODEN NOS TIRAMOS A LOS HUEVOS

SOMOS

A                C-F             F-C-G
RATAS DE CIUDAD, RATAS DE CIUDAD
            C-B-G A                     GGG
VIVIMOS SUMERGIDAS ENCERRADAS EN UN BAR
A                C-F             F-C-G
RATAS DE CIUDAD, RATAS DE CIUDAD
            C-B-G A                           GGG
LA VIDA NOS DIO UN RUMBO Y NOS QUISIMOS DESVIAR


F  G  C-B-A
           NO ENTENDEMOS TU POSTURA
C  B  C-B-A
           Y EL ODIO NOS DA LA RAZÓN
F  G  C-B-A
           ES UN CAMINO EN LA VIDA

C  B  C-B-A   AA  A  AA  A  AA  A  AA A  AA  A  AA  A  AA  A  C-B
             (pm)   (pm)   (pm)   (pm)  (pm)   (pm)   (pm)


F               C-B-G             C-B-A
ES LA NUEVA REVUELTA UNA REVELACIÓN

AA  A  AA  A  AA  A  AA A  AA  A  AA  A  AA  A  C-B
             (pm)   (pm)   (pm)   (pm)  (pm)   (pm)   (pm)
F              C-B-G                   C-B-A
UN EJERCITO DE RATAS UNA FUENTE DE RENCOR


NO QUEREMOS NADA VUESTRO
A(pm)                              C B
MANTENEMOS NUESTRA PROPIA SOCIEDAD
A                            F E
RATONERAS DE LA VIEJA ESCUELA
A(pm)                                   C B     A
SIEMPRE HAY SITIO PARA LOS QUE AUN PENSAMOS   HEY HEY

F                 D                A
QUE VUESTRO ENTORNO ESTA PODRIDO   HEY HEY
F              G            A
QUE REINA LA DESIGUALDAD   HEY HEY
F                 D                A
PREFERIMOS NUESTRAS RATONERAS      HEY HEY
F              G                     A
DONDE REINAN RATAS INSUBORDINADAS    HEY HEY

F              G                     A
DONDE REINAN RATAS INSUBORDINADAS    HEY HEY
F              G                     A
DONDE REINAN RATAS INSUBORDINADAS    HEY HEY


A                 G-A             D-F*
QUE VUESTRO ENTORNO   ESTA PODRIDO
     E-D    F*-E-D-A
Y QUE REINA LA DESIGUALDAD
A                  G-A
PREFERIMOS NUESTRAS PUTAS RATONERAS
A-F            G
DONDE REINAN RATAS DE CIUDAD

A                 G-A             D-F*
QUE VUESTRO ENTORNO   ESTA PODRIDO
           E   D    A
Y QUE REINA LA DESIGUALDAD
A                  G-A
PREFERIMOS NUESTRAS PUTAS RATONERAS
A-G-F            G
DONDE REINAN RATAS DE CIUDAD


A   A-G  F              G                     A
         DONDE REINAN RATAS INSUBORDINADAS    HEY HEY

Outro
|-----------------------------------------------------------------|
|-----------------------------------------------------------------|
|-----------------------------------------------------------------|
|-7-------------5-7-------------5-7-------------7--3-3-3-5-3-5--7-|
|-7-------------5-7-------------5-7-------------7--3-3-3-5-3-5--7-|
|-5-------------3-5-------------3-5-------------5--1-1-1-3-1-3--5-|
                                                   [palm Mute]
Suggest correction
Creating personal tab
Creating personal tab
You can edit any tab online and save it as your Personal.

You can edit, replace or remove any tab part or add personal notes – all changes will be seen only by you.

Personal tabs can be accessed anytime from any device, even offline.
Learn more »
Give kudos to tab author, rate the tab!
1 2 3 4 5
comments
print report bad tab
guest
Wanna post a correction for this tab? Suggest correction