Oops, an error
Loading. Please wait.

Sangre X Sangre tab

184 views 3 this week
no commentswrite comment
1 2 3 4 5
3 more votes to show rating
add to favorites
×
Save as Personal and add changes to this tab that will be seen only by you. Learn more ›
×
You can save this tab as Personal to edit and correct it or add notes. All changes will be seen only by you. Learn more »
launch autoscroll
font size
0
reset
how to read this tab
guitar tuner
edit
Autoscroll
slow
fast
+/-
esc
set tempo
stop
INTRO

Empieza el bajo aciendo algo así;

1----------------------------------------
2----------------------------------------
3-5---5---5---5---3-6-5-3---6-5-3--------
4--33--33--33--33------------------------

                                      GUITARRA;     G# G G# A# G# A#  C
1------------------------------------------------------------------
2------------------------------------------------------------------
3-5---5---5---5---3-6-5-3---6-5-3----3---3---3---3-----------------
4--33--33--33--33---------------------11--11--11--11-11111111111111


La guitarra empieza en la repeticion que hace el bajo en el traste [1]
haciendo esto;

   G#-G-G#-A#-G#-A#--C
1------------------------------------------------------------
2------------------------------------------------------------
3----------------5-------------------------------------------
4--6-5-6-8-6-8---5-------------------------------------------
5--6-5-6-8-6-8---3-------------------------------------------
6--4-3-4-6-4-6-----------------------------------------------


Sigue el bajo, mientras la guitarra da golpes sekos;

                               C
1-----------------------------------
2-----------------------------------
3-5---5---5---5---3-6-5-3---6-5-3---
4--33--33--33--33-------------------

                                     A#               G# G G# A# G# A#  C
1----------------------------------------------------------------------
2----------------------------------------------------------------------
3-5---5---5---5---3-6-5-3---6-5-3----3---3---3---3---------------------
4--33--33--33--33---------------------11--11--11--11--11111111111111---


Ahora es lo mismo, pero la guitarra hace el palm muted en la nota C( Do)
a machacones:
  C..........p.m.................
1-----------------------------------
2-----------------------------------
3-5---5---5---5---3-6-5-3---6-5-3---
4--33--33--33--33-------------------

  C..............p.m.................A#               G# G G# A# G# A#  C
1----------------------------------------------------------------------
2----------------------------------------------------------------------
3-5---5---5---5---3-6-5-3---6-5-3----3---3---3---3---------------------
4--33--33--33--33---------------------11--11--11--11--11111111111111---


KUANDO KANTA;

C(p.m)......................................
Ya es otra muerte y no puedo detener mi rabia,
......................G# G G# A# G# A#
la sensatez me empuja a acabar con ellos ya,
C(p.m)....................................
es algo superior que recorre todo mi cuerpo,
.........................G# G G# A# G# A#
nuestra vida se reduce, a un odio descomunal

C(p.m)................G A# D# D D# D
se llevaran los nuestros,
C(p.m)............G A# D# D D# E#(8)
sin ninguna piedad,
C(p.m)............G A# D# D D# D
son unos asesinos,
C(p.m).............G A# D# D D# D
lo tienen que pagar.


C(p.m)...........................................
Sangre por sangre ahora es nuestro unico objetivo,
........................G# G G# A# G# A#
acabar con esos cerdos para siempre y de verdad,
C(p.m).........................................
Mentalizarnos todos de que ellos no son personas,
........................G# G G# A# G# A#
solo cuerpos sin mente, a los que ai ke rebentar

C(p.m)............G A# D# D D# D
se llevaran los nuestros,
C(p.m)............G A# D# D D# E#(8)
sin ninguna piedad,
C(p.m)............G A# D# D D# D
son unos asesinos,
C(p.m)............G A# D# D D# D
lo tienen que pagar.


C                 G#
Creen que esto se ha terminado,
A#        C#  C
eso esta por ver,
C                  G#
tener muy claro que os encontraremos,
A#      G#  G
Y lo pagareis!


C(p.m)...........................................
Organizar la rabia en cada barrio en cada esquina,
...........................G# G G# A# G# A#
hoy se a abierto la veda y jamas se cerrara,
C(p.m)..............................
si nos tocan a uno nos tocan a todos
.........................G# G G# A# G# A#
que esa sea la consigna, a por ellos pero ¡YA!


C(p.m).................G A# D# D D# D
Por nuestros compañeros,
C(p.m).................G A# D# D D# E#(8)
que no regresaran,
C(p.m).................G A# D# D D# D
hagamoslo por ellos,
C(p.m).................G A# D# D D# D
hemos de reaccionar.


AQUI SOLO SUENA EL BAJO HASTA QUE LA GUITARRA HACE CON PALM MUTED;

     ..p.m.....
1-----------------
2-----------------
3-----------------
4----0-6-6-5--2---
5----0-6-6-5--2---
6----0-4-4-3--0---

Y HACE ESTE PUNTEO KON NOTA PEDAL(*) Y PALM MUTED;

(*) en la nota pedal los golpes en el traste 3 de la 5ª linea
se hacen con palm muted.


1----------------------------------------------------------
2----------------------------------------------------------
3----------------------------------------------------------
4----5-3-5-6-5-3-5----66666---3333--555--------------------
5---3-3-3-3-3-3-3-----66666---3333--555--------------------
6---------------------44444---1111--333--------------------
   |..nota pedal.|


Ahora se toca esto;


   C        D# D# D A#  G#       D# D# D A#  C
1-------------------------------------------------------------
2-------------------------------------------------------------
3--555555----8-8-7----------------8-8-7------555555-----------
4--555555----8-8-7-8----666666----8-8-7-8----555555-----------
5--333333----6-6-5-8----666666----6-6-5-8----333333-----------
6------------------6----444444----------6---------------------


 C
Que no se apague la llama que nos une jamas,
                       D# D# D A#
los detendremos, todos ¡a por ellos ya!
G#
que los cerdos tengan ya su merecido,
                             D# D# D A#
ninguna muerte en vano nunca mas puede quedar
C
hoy comienza un nuevo dia un nuevo mundo
                            D# D# D A#
donde esos asesinos ¡nunca mas tendran lugar!,
G#
Codo con Codo, espalda contra espalda todos a por ellos
 D# D# D A#
¡No se eskaparan!


AQUI VIENE UN PUNTEO;

1----------------------------------------------------------------------
2----------------------------------------------------------------------
3--12-12-12-12--10--13--12--10---13-12-10---13-12-10-13-12-10-13-12-10-
4----------------------------------------------------------------------
5----------------------------------------------------------------------
6----------------------------------------------------------------------

1----------------------------------------------------------------------
2----------------------------------------------------------------------
3--15-14-12-15-14-12-15-14-12------------------------------------------
4----------------------------------------------------------------------
5----------------------------------------------------------------------
6----------------------------------------------------------------------


1----------------------------------------------------------------------
2----------------------------------------------------------------------
3--12-12-12-12--10--13--12--10---13-12-10---13-12-10-13-12-10-13-12-10-
4----------------------------------------------------------------------
5----------------------------------------------------------------------
6----------------------------------------------------------------------

1------------------------------------------
2------------------------------------------
3--15-14-12-15-14-12-15-14-12------15~-----
4------------------------------------------
5------------------------------------------
6------------------------------------------


 C
Que no se apague la llama que nos une jamas,
                       D# D# D A#
los detendremos, todos ¡a por ellos ya!
G#
que los cerdos tengan ya su merecido,
                             D# D# D A#
ninguna muerte en vano nunca mas puede quedar
C
hoy comienza un nuevo dia un nuevo mundo
                            D# D# D A#
donde esos asesinos ¡nunca mas tendran lugar!,
G#
Codo con Codo, espalda contra espalda todos a por ellos
 D# D# D A#
¡No se eskaparan!


C (golpe seco)
Carlos hermano nosotros no olvidamos!
Guillem hermano nosotros no olvidamos!

C(golpe seco)
Carlos hermano nosotros no olvidamos!
Lucrecia hermana nosotros no olvidamos!

1----------------------------------------------------------
2----------------------------------------------------------
3----------------------------------------------------------
4----5-3-5-6-5-3-5----6-6---3-3--5-5----------------------- x2
5---3-3-3-3-3-3-3-----6-6---3-3--5-5-----------------------
6---------------------4-4---1-1--3-3-----------------------
   |..nota pedal.|


C (golpe seco)
Carlos hermano nosotros no olvidamos!
Guillem hermano nosotros no olvidamos!

C(golpe seco)
Carlos hermano nosotros no olvidamos!
Lucrecia hermana nosotros no olvidamos!


PARA ACABAR;

1----------------------------------------------------------
2----------------------------------------------------------
3----------------------------------------------------------
4----5-3-5-6-5-3-5----6-6---3-3--5-5----------------------- x4
5---3-3-3-3-3-3-3-----6-6---3-3--5-5-----------------------
6---------------------4-4---1-1--3-3-----------------------
   |..nota pedal.|


Y ahi esta todo...

algun error o dudad--> bargota_marea@


Salud!!
Suggest correction
Creating personal tab
Creating personal tab
You can edit any tab online and save it as your Personal.

You can edit, replace or remove any tab part or add personal notes – all changes will be seen only by you.

Personal tabs can be accessed anytime from any device, even offline.
Learn more »
Give kudos to tab author, rate the tab!
1 2 3 4 5
comments
print report bad tab
guest
Wanna post a correction for this tab? Suggest correction