Oops, an error
Loading. Please wait.

Torpedo tab

version 2
version 2

Whole song

569 views 3 this week
no commentswrite comment
1 2 3 4 5
3 more votes to show rating
add to favorites
×
Save as Personal and add changes to this tab that will be seen only by you. Learn more ›
×
You can save this tab as Personal to edit and correct it or add notes. All changes will be seen only by you. Learn more »
launch autoscroll
font size
0
reset
how to read this tab
guitar tuner
edit
Autoscroll
slow
fast
+/-
esc
set tempo
stop
En primer lugar, he leído las otras dos tablaturas, y me parece que ninguna
de las dos está completa, así que he decidido completarlas.
Aún así, me parece que están bastante bien.

Afinación: E-A-D-G-B-e

Al principio, la guitarra rítmica va sin distorsión y la solista, va lenta.


RIFF

 Dm                       A#m
-------------------------|-------------------------|
-------------------------|-------------------------|
-------------------------|-------------------------|
----0-2-3----0-2-3-2-0---|---0-2-3----0-2-3-2-0----|
--0--------0-----------3-|-1--------1-----------1--|
-------------------------|-------------------------|

 Am                         Dm
---------------------------------|
---------------------------------|
-------------2-2-2-2-0-----------|
---------0-2-----------3-2-0-----|
--0--0-0-------------------------|
---------------------------------|

...TORPEDO!!!!!!!

A partir de aquí, la guitarra rítmica lleva distorsión
y la canción adquiere
velocidad.

RIFF x2

(las dos guitarras tocan lo mismo y rápidamente,):

RE
Una canción hecha a tu medida,
LA#
Esto es para ti bala perdida,
LA
Joven oculto, en la oscuridad.

RE
Macarrismo puro sin complejos,
LA#
La vida normal te queda lejos,
LA
Fiel amante, de la oscuridad.

RE
De la oscuridad ?de la oscuridad?
LA#
De la oscuridad ?de la oscuridad?
LA
De la oscuridaaaaaaaaaaad  TORPEDO!

RIFF x2

RE
Muchos años experimentando,
LA#
Sensaciones que nunca entendieron,
LA
Joven torpedo, de la oscuridad.

RE
Y si hay algo que te has aprendido,
LA#
Es que no van a poder contigo,
LA
Joven oculto, en la oscuridaaaaad.

RE
De la oscuridad ?de la oscuridad?
LA#
De la oscuridad ?de la oscuridad?
LA
De la oscuridaaaaaaaaaaad  TORPEDO!

RIFF x2

-----------------|----------------|---------------|
-----------------|----------------|---------------|
----------7--5--3|5-5-5-5-5-5xx5xx|7--5--3-3-3-3-3|
8-8-8-8-8-7--5--3|5-5-5-5-5-5xx5xx|7--5--3-3-3-3-3|
8-8-8-8-8-5--3--1|3-3-3-3-3-3xx3xx|5--3--1-1-1-1-1|
6-6-6-6-6--------|----------------|---------------|

-----------------|---------|
-----------------|---------|
7--5--3-5-5-5-5-5|6-6-6-6-6|
7--5--3-5-5-5-5-5|6-6-6-6-6|
5--3--1-3-3-3-3-3|4-4-4-4-4|
-----------------|---------|


Sólo:

Al principio, la guitarra solista no lleva distorsión

--------------------------------------------
--------------------------------------------
--------------------------------------------
--------------------------------------------
-555555555--7-888888888-8754-4444444444-475-
--------------------------------------------


--------------------------------------------
--------------------------------------------
-555555555--7-888888888-8754-4444444444-475-
--------------------------------------------
--------------------------------------------
--------------------------------------------


Aquí ya hay distorsión:

-----------------------------------17----
-------------------------13-15-15-----15-
-7~~~~~7-9-10-9-10-12-14-----------------
-----------------------------------------
-----------------------------------------
-----------------------------------------

---------------------------------------------
---------------------------------------------
--10-9-10-9-5--4-5-5-5-5-5-5-5-5-5-5/4/3/2/1p
---------------------------------------------
---------------------------------------------
---------------------------------------------

Leyenda: p=tirar de la cuerda      (Esto último es cosa mía,
~=vibrato   /=slide                 pero queda bien)

Acordes usados:

Al principio, los acordes son:

  Dm (RE m) A# (LA#m) A (LA m)
--5---------6---------5-
--6---------6---------5-
--7---------7---------6-
--7---------8---------7-
--5---------8---------7-
--5---------6---------5-

Para el resto de la canción:

 D (RE)   A# (LA#)  A (LA)
------------------------
------------------------
-7----------------------
-7--------8---------7---
-5--------8---------7---
----------6---------5---


Saludos a todos!!!!! Cuídense!!!

            
            
Suggest correction
Creating personal tab
Creating personal tab
You can edit any tab online and save it as your Personal.

You can edit, replace or remove any tab part or add personal notes – all changes will be seen only by you.

Personal tabs can be accessed anytime from any device, even offline.
Learn more »
Give kudos to tab author, rate the tab!
1 2 3 4 5
comments
print report bad tab
guest
Wanna post a correction for this tab? Suggest correction