Oops, an error
Loading. Please wait.

Banned From Teen Arts Tab

991 views 1 this week
no commentswrite comment
1 2 3 4 5
please rate
add to favorites
launch autoscroll
font size
0
reset
how to read this tab
guitar tuner
Autoscroll
slow
fast
+/-
esc
set tempo
stop
Help us to improve Ultimate-Guitar.com Take our survey!
×
Difficulty
intermediate
Listen for the rythem. everything should be right. have fun, rock hard.
love always, BK


Intro

e|----------------------|
B|----------------------|
G|13-------14-----11-9--|
D|----------------------|
A|11-------12-----9--7--|
E|----------------------|


Intro riff (play after the octave part above)

e|-------------------------------------------------|
B|9-9----------------------------------------------|
G|----9-9-11-9--9-9-9-9-9---9-9-9-9-9--------------|
D|------------------------9-----------12-12-12-11--|
A|-------------------------------------------------|
E|-------------------------------------------------|


2nd Guitar (while 1st guitar plays intro and riff above)

e|-----------------------------|
B|-----------------------------|
G|99999999-777777-44-----------|
D|99999999-777777-44-77777777--|
A|77777777-555555-22-77777777--|
E|-------------------55555555--|


Verse (same as second guitar part)

e|-----------------------------|
B|-----------------------------|
G|99999999-777777-44-----------|
D|99999999-777777-44-77777777--|
A|77777777-555555-22-77777777--|
E|-------------------55555555--|


Pre chorus ("eight years, five months to blame for who i am today")

e|---------------------------------------|
B|---------------------------------------|
G|77777777-------------9999-7777-6666----|
D|77777777-222222222---------------------|
A|55555555-222222222---7777-5555-4444----|
E|---------000000000---------------------|


Chorus (think i was born in new jersey)

e|------------------------------------------------------------|
B|------------------------------------------------------------|
G|-----------7777777777-7777777777------------9999-7777-6666--|
D|7777777777-7777777777-7777777777-2222222222-----------------|
A|7777777777-5555555555-5555555555-2222222222-7777-5555-4444--|
E|5555555555-----------------------0000000000-----------------|

  (yeah i was born in new jersey, and it will die in me)
e|---------------------------------|
B|---------------------------------|
G|-----------7777777777-7777-9999--|
D|7777777777-7777777777-7777-9999--|
A|7777777777-5555555555-5555-7777--|
E|5555555555-----------------------|

Post Chorus/Little break down
**Make sure you strum only the three strings that have notes playing

*= let it ring   x=palm mute

e|--------------------------------------------------------|
B|--------------------------------------------------------|
G|66666-444----------66666-444----------------------------|
D|77777-777-777-4*---77777-777-777-4--444-----------------|
A|00000-000-555-5*---00000-000-555-5--555-6h77777-6h77777-|
E|----------000-0*-------------000-0--000-5-55555-5-55555-|
                                             xxxx    xxxx


Verse 2x
Pre chorus
chorus

Post Chorus/Little break down

e|-------------------------------------------------------------------------|
B|-------------------------------------------------------------------------|
G|66666-444----------66666-444---------66666-444-777-----77777-777-777-----|
D|77777-777-777-4*---77777-777-777-4*--77777-777-777-6*--77777-777-777-6*--|
A|00000-000-555-5*---00000-000-555-5*--00000-000-000-5*--00000-000-000-5*--|
E|----------000-0*-------------000-0*--------------------------------------|


Ending/Outro

* = let it ring
e|---------------------------------------------------------------------------|
B|---------------------------------------------------------------------------|
G|7--66*------7-66-44*----7--66*------7-66-444-7-66-44-66-77777777-----------|
D|7--77*------7-77-77*----7--77*------7-77-777-7-66-44-66-77777777-77777777--|
A|0--00*------0-00-00*----0--00*------0-00-000-5-44-22-44-55555555-77777777--|
E|-----------------------------------------------------------------55555555--|





E(high)                          D
Perfect mix of both music and traffic

                    B         A
im so stoked about breathable oxygen

so long is thirty miles long

E                        D
city life is so not attractive

                 B                 A
when paranoias gotten the best of me

I look long and hard. im always wrong.


D                            E(low)
eight years, five months to blame for who i am today

A                      D
think i was born in new jersey

D
old friends still talk to some

    E
crawl back under the rock i came from

A                     D
yeah i was born in new jersey
              E(high) 
and it will        die in me.



E(high)                        D
spent some time away from my feelings

                                A
while everything around me was crushing me

for long, denying being wrong.

E                       D                                              A
I broke down, built up, I broke down. i broke down. Built up broke down twice.

oh thats right, you gotta sing along.



D                            E(low)
eight years, five months to blame for who i am today

A                      D
think i was born in new jersey

D
old friends still talk to some

    E
crawl back under the rock i came from

A                     D
yeah i was born in new jersey
              E(high) 
and it will        die in me.
Suggest correction
What's this?
You can suggest a correction to this tab. Community and Mods will review your correction and vote to approve or reject it.
comments
We did not receive enough feedback on this tab! Please rate:
print report bad tab
1 2 3 4 5
guest
You may want to rate the tab now too:
select rating
Please do not post tabs as comments. Select "correction" instead!