Oops, an error
Loading. Please wait.

Dinners For Suckers Tab

2,580 views 1 this week
1 commentread comment
1 2 3 4 5
excellent!
x 4
add to favorites
launch autoscroll
font size
0
reset
how to read this tab
guitar tuner
Autoscroll
slow
fast
+/-
esc
set tempo
stop
Help us to improve Ultimate-Guitar.com Take our survey!
×
WWW.NomeNoreBlackonline.com
Reccord company: Fat Wreck Cords (owned by fat mike of NoFx)
Song: Dinners For Suckers
Artist:None More Black
Album:Flie Under Black
Tabbed By: Homie "G"

This is 100% right! I'm sure of it! I luv this song, it's easy and fun to play!

INTRO 
- Guitar 1 
e-|-----------------------------------------------------------| 
B-|--------------------------------------10-9-10-9-10-9-10-9--| 
G-|--9----11----4----14-13----9----11-----9-9--9-9--9-9--9-9--| 
D-|--x-----x----x-----x--x----x-----x-------------------------| 
A-|--7-----9----2----12-11----7-----9-------------------------| 
E-|-----------------------------------------------------------| 

e-|-----------------------------------------------------------| 
B-|--------------------------------------10-9-10-9-10-9-10-9--| 
G-|--4----6----4----6--8----4----6--------9-9--9-9--9-9--9-9--| 
D-|--x----x----x----x--x----x----x----------------------------| 
A-|--2----4----2----4--6----2----4----------------------------| 
E-|-----------------------------------------------------------| 

e-|--------------------------| 
B-|--5--5h4-----------5h4----| 
G-|---------4------2------4--| 
D-|--------------------------| 
A-|--------------------------| 
E-|--------------------------| 

- Guitar 2 
e-|-----------------------------------------------------------------------------| 
B-|-----------------------------------------------------------------------------| 
G-|---------22--44----99------22--44------------22--44-----66-4---666-2--666-4--| 
D-|--2--66--22--44----99--66--22--44----22--66--22--44-----66-4---666-2--666-4--| 
A-|--2--66--00--22----77--66--00--22----22--66--00--22-----44-2---444-0--444-2--| 
E-|--0--44----------------44------------00--44----------------------------------|
e-|-----------------------------------------------------------------------------| 
B-|-----------------------------------------------------------------------------| 
G-|---------22--44----99------22--44------------22--44-----66-4---666-2--666-4--| 
D-|--2--66--22--44----99--66--22--44----22--66--22--44-----66-4---666-2--666-4--| 
A-|--2--66--00--22----77--66--00--22----22--66--00--22-----44-2---444-0--444-2--| 
E-|--0--44----------------44------------00--44----------------------------------|
e-|----------------------------------| 
B-|----------------------------------| 
G-|----------------------------------| 
D-|--2----2----2----2----------------| 
A-|--2----2----2----2---[PICKSLIDE]--| 
E-|--0----0----0----0----------------| 
VERSE 1 
- Guitar 1+2 
e-|--------------------------------------------| 
B-|--------------------------------------------| 
G-|-------44/6-66------------------------------| 
D-|--2----44/6-66----66/7-77----66/7-77-77-76--| 
A-|--2----22/4-44----66/7-77----66/7-77-77-76--| 
E-|--0---------------44/5-55----44/5-55-55-54--|
 
e-|--------------------------------------------| 
B-|--------------------------------------------| 
G-|-------44/6-66------------------------------| 
D-|--2----44/6-66----66/7-77----66/7-77-77-76--| 
A-|--2----22/4-44----66/7-77----66/7-77-77-76--| 
E-|--0---------------44/5-55----44/5-55-55-54--|

e-|--------------------------------------------| 
B-|--------------------------------------------| 
G-|-------44/6-66------------------------------| 
D-|--2----44/6-66----66/7-77----66/7-77-77-76--| 
A-|--2----22/4-44----66/7-77----66/7-77-77-76--| 
E-|--0---------------44/5-55----44/5-55-55-54--| 

e-|--------------------------------------------| 
B-|--------------------------------------------| 
G-|-------44/6-66------------------------------| 
D-|--2----44/6-66----66/7-77----66/7-77-77-76--| 
A-|--2----22/4-44----66/7-77----66/7-77-77-76--| 
E-|--0---------------44/5-55----44/5-55-55-54--|




e-|-----------------------------------------| 
B-|-----------------------------------------| 
G-|--99-999---------------------------------| 
D-|--99-999----7-7777---44-444---7-7777-----| 
A-|--77-777----7-7777---44-444---7-7777-----| 
E-|------------5-5555---22-222---5-5555-----| 
PM               ....              ....

e-|-----------------------------------------------| 
B-|-----------------------------------------------| 
G-|-------44/6-66---------------------------------| 
D-|--2----44/6-66----66/7-77----66/7-77--6-7------| 
A-|--2----22/4-44----66/7-77----66/7-77--6-7------| 
E-|--0---------------44/5-55----44/5-55--4-5------| 

CHORUS 
- Guitar 1+2 
e-|-----------------------------------------------------------------------------| 
B-|-----------------------------------------------------------------------------| 
G-|---------22--44----99------22--44------------22--44-----66-4---666-2--666-4--| 
D-|--2--66--22--44----99--66--22--44----22--66--22--44-----66-4---666-2--666-4--| 
A-|--2--66--00--22----77--66--00--22----22--66--00--22-----44-2---444-0--444-2--| 
E-|--0--44----------------44------------00--44----------------------------------|

VERSE 2 
- Guitar 1+2 
e-|--------------------------------------------| 
B-|--------------------------------------------| 
G-|-------44/6-66------------------------------| 
D-|--2----44/6-66----66/7-77----66/7-77-77-76--| 
A-|--2----22/4-44----66/7-77----66/7-77-77-76--| 
E-|--0---------------44/5-55----44/5-55-55-54--|

e-|--------------------------------------------| 
B-|--------------------------------------------| 
G-|-------44/6-66------------------------------| 
D-|--2----44/6-66----66/7-77----66/7-77-77-76--| 
A-|--2----22/4-44----66/7-77----66/7-77-77-76--| 
E-|--0---------------44/5-55----44/5-55-55-54--|


e-|-----------------------------------------| 
B-|-----------------------------------------| 
G-|--99-999---------------------------------| 
D-|--99-999----7-7777---44-444---7-7777-----| 
A-|--77-777----7-7777---44-444---7-7777-----| 
E-|------------5-5555---22-222---5-5555-----| 
PM               ....              ....

e-|-----------------------------------------------| 
B-|-----------------------------------------------| 
G-|-------44/6-66---------------------------------| 
D-|--2----44/6-66----66/7-77----66/7-77--6-7------| 
A-|--2----22/4-44----66/7-77----66/7-77--6-7------| 
E-|--0---------------44/5-55----44/5-55--4-5------| 

CHORUS 
- Guitar 1+2 
e-|-----------------------------------------------------------------------------| 
B-|-----------------------------------------------------------------------------| 
G-|---------22--44----99------22--44------------22--44-----66-4---666-2--666-4--| 
D-|--2--66--22--44----99--66--22--44----22--66--22--44-----66-4---666-2--666-4--| 
A-|--2--66--00--22----77--66--00--22----22--66--00--22-----44-2---444-0--444-2--| 
E-|--0--44----------------44------------00--44----------------------------------|

e-|-----------------------------------------------------------------------------| 
B-|-----------------------------------------------------------------------------| 
G-|---------22--44----99------22--44------------22--44-----66-4---666-2--666-4--| 
D-|--2--66--22--44----99--66--22--44----22--66--22--44-----66-4---666-2--666-4--| 
A-|--2--66--00--22----77--66--00--22----22--66--00--22-----44-2---444-0--444-2--| 
E-|--0--44----------------44------------00--44----------------------------------|
Suggest correction
comments
print report bad tab
1 comment total.
0 reply
sassamafras 80 wrote on July 11 2006, 06:01 pm

sweet None more black rock

guest
You may want to rate the tab now too:
select rating
Wanna post a correction for this tab? Suggest correction