Oops, an error
Loading. Please wait.

Majestic Tab

1,086 views 1 this week
no commentswrite comment
1 2 3 4 5
please rate
add to favorites
launch autoscroll
font size
0
reset
how to read this tab
guitar tuner
Autoscroll
slow
fast
+/-
esc
set tempo
stop
Help us to improve Ultimate-Guitar.com Take our survey!
×
None More Black - Majestic

There was no Tab! No here is it! It sounds good! Nice song !Have fun!


     A D A    A                           D

e:-------------------------------------------------------------------------|
B:-------------------------------------------------------------------------|
G:-----7------------------------2--4--7---7-77-7-77-7-77---7s11--9--5------|
D:xx-7-7-7----7-77-7--77-7-77-------------7-77-7-77-7-77-------------------|
A:xx-7-5-7----7-77-7--77-7-77-------------5-55-5-55-5-55-------------------|
E:xx-5---5----5-55-5--55-5-55----------------------------------------------|
              d du d  du d du             d du d  du d du

    A                           D
e:---------------------------------------------------------------|
B:---------------------------------------------------------------|
G:--------------------2--4--7---7-77-7-77-7-77---7s11--9--7------|
D:--7-77-7--77-7-77-------------7-77-7-77-7-77-------------------|
A:--7-77-7--77-7-77-------------5-55-5-55-5-55-------------------|
E:--5-55-5--55-5-55----------------------------------------------|
    d du d  du d du             d du d  du d du

    A                A G# F# E           E7
e:-------------------------------------------------|
B:-------------------------------------------------|
G:-------------------------------------------------|
D:--7-77-7--77-7-77---7-6-4--1-11-1-11-1 1~--------| Then a short break and
A:--7-77-7--77-7-77---7-6-4--2-22-2-22-2 0~--------| again and again!!!;)
E:--5-55-5--55-5-55---5-4-2--2-22-2-22-2 2~--------|
    d du d  du d du          d du d du d d

lyrics:

Twenty-nine years into life. Some things, I still can get right.
Priorities may never be straight. That's always a topic for debate.
I've made up my mind. I shouldn't be loved.
I play in a band, I work when I'm home.
Why do I feel guilty for the shit that I have done?
I've opened some doors. Slammed just as many.
Opportunity's knocked. How can you blame me?
I'm trapped in a life that I have chosen.
My heart's growing colder yet harder to be broken.
Again and again. I'm chipping away at nothing.
Suggest correction
Give kudos to tab author, rate the tab!
1 2 3 4 5
comments
print report bad tab
guest
You may want to rate the tab now too:
select rating
Wanna post a correction for this tab? Suggest correction