Oops, an error
Loading. Please wait.

Zero Tolerance Drum Policy Tab

version 1
version 1

Whole song

285 views 1 this week
no commentswrite comment
1 2 3 4 5
please rate
add to favorites
launch autoscroll
font size
0
reset
how to read this tab
guitar tuner
Autoscroll
slow
fast
+/-
esc
set tempo
stop
Help us to improve Ultimate-Guitar.com Take our survey!
×
Author
Artist: None More Black
Song: Zero Tolerance Drum Policy
Album: File Under Black
Tabber: Homie G

~ let ring

Guitar 1 tuning: Eadbge
Guitar 2 tuning: Dadbge


Intro 

Guitar 1            /Both Guitars\ 
|------------------|--------------|
|------------------|--------------|
|--9-9-9-11-11-7-7-|--------------|
|--9-9-9-11-11-7-7-|-5-5-5-5-5-5--|
|--7-7-7-9--9--5-5-|-5-5-5-5-5-5--|
|------------------|-3-3\2-2/3-3--|

Guitar 1            /Both Guitars\
|------------------|--------------|
|------------------|--------------|
|--9-9-9-11-11-7-7-|--------------|
|--9-9-9-11-11-7-7-|-7-7-7-7-7-7--|
|--7-7-7-9--9--5-5-|-7-7-7-7-7-7--|
|------------------|-5-5\4-4/5-5--|

Both Guitars
|-----------------------------------------------------|
|-----------------------------------------------------|
|-4-4-4-4-4-4-4---------------7-7-7-7-7-7-7-7---------|
|-4-4-4-4-4-4-4-5-5-5-5-5-5-5-7-7-7-7-7-7-7-7-7-7-7-7-|
|-2-2-1-1-2-2-2-5-5-5-5-5-5-5-5-5-5-5-4-4-4-4-7-7-7-7-|
|---------------3-3-2-2-3-3-3-----------------5-5-5-5-|

Guitar 1            /Both Guitars\ 
|------------------|--------------|
|------------------|--------------|
|--9-9-9-11-11-7-7-|--------------|
|--9-9-9-11-11-7-7-|-5-5-5-5-5-5--|
|--7-7-7-9--9--5-5-|-5-5-5-5-5-5--|
|------------------|-3-3\2-2/3-3--|

Guitar 1            /Both Guitars\
|------------------|--------------|
|------------------|--------------|
|--9-9-9-11-11-7-7-|--------------|
|--9-9-9-11-11-7-7-|-7-7-7-7-7-7--|
|--7-7-7-9--9--5-5-|-7-7-7-7-7-7--|
|------------------|-5-5\4-4/5-5--|

Both Guitars
|-----------------------------------------------------|
|-----------------------------------------------------|
|-4-4-4-4-4-4-4---------------7-7-7-7-7-7-7-7---------|
|-4-4-4-4-4-4-4-5-5-5-5-5-5-5-7-7-7-7-7-7-7-7-7-7-7-7-|
|-2-2-1-1-2-2-2-5-5-5-5-5-5-5-5-5-5-5-4-4-4-4-7-7-7-7-|
|---------------3-3-2-2-3-3-3-----------------5-5-5-5-|

Guitar 1 ends on               guitar 2 ends on
|---|                          |----|
|---|                          |----|
|-7-|                          |-7--|
|-7-|                          |-7--|
|-5-|                          |-7--|
|---|                          |-0~-|

Let 0 on guitar 2 ring for the bass part of the pre-verse


Pre-Verse      Guitar 2

Bass plays the first two measures of the pre-verse
Drums come in on the 4th Measure of the pre verse

|----------------|
|----------------|
|----------------|
|----------------|
|----------------|
|----------------|

|----------------|
|----------------|
|----------------|
|----------------|
|----------------|
|----------------|


|----------------------|
|-777-88-77-88-8-6-6-6-|
|-777-77-77-77-7-6-6-6-|
|-999-99-99-99-9-9-9-9-|
|----------------------|
|----------------------|

|----------------------|
|-777-88-77-88-8-6-6-6-|
|-777-77-77-77-7-6-6-6-|
|-999-99-99-99-9-9-9-9-|
|----------------------|
|----------------------|

|----------------------|
|-777-88-77-88-8-6-6-6-|
|-777-77-77-77-7-6-6-6-|
|-999-99-99-99-9-9-9-9-|
|----------------------|
|----------------------|

|----------------------|
|-777-88-77-88-8-6-6-6-|
|-777-77-77-77-7-6-6-6-|
|-999-99-99-99-9-9-9-9-|
|----------------------|
|----------------------|

|----------------------|
|-777-88-77-88-8-6-6~--|
|-777-77-77-77-7-6-6~--|
|-999-99-99-99-9-9-9~--|
|----------------------|
|----------------------|

Verse     Guitar 2

|----------------------|
|-777-88-77-88-8-6-6-6-|
|-777-77-77-77-7-6-6-6-|
|-999-99-99-99-9-9-9-9-|
|----------------------|
|----------------------|

|----------------------|
|-777-88-77-88-8-6-6-6-|
|-777-77-77-77-7-6-6-6-|
|-999-99-99-99-9-9-9-9-|
|----------------------|
|----------------------|

|----------------------|
|-777-88-77-88-8-6-6-6-|
|-777-77-77-77-7-6-6-6-|
|-999-99-99-99-9-9-9-9-|
|----------------------|
|----------------------|

|----------------------|
|-777-88-77-88-8-6-6-6-|
|-777-77-77-77-7-6-6-6-|
|-999-99-99-99-9-9-9-9-|
|----------------------|
|----------------------|

|----------------------|
|-777-88-77-88-8-6-6-6-|
|-777-77-77-77-7-6-6-6-|
|-999-99-99-99-9-9-9-9-|
|----------------------|
|----------------------|

|----------------------|
|-777-88-77-88-8-6-6-6-|
|-777-77-77-77-7-6-6-6-|
|-999-99-99-99-9-9-9-9-|
|----------------------|
|----------------------|

|----------------------|
|-777-88-77-88-8-6-6-6-|
|-777-77-77-77-7-6-6-6-|
|-999-99-99-99-9-9-9-9-|
|----------------------|
|----------------------|

|----------------------|
|-777-88-77-88-8-6-6-6-|
|-777-77-77-77-7-6-6-6-|
|-999-99-99-99-9-9-9-9-|
|----------------------|
|----------------------|

Chorus       Guitar 2

**Strum the 8, 12, & 10’s in the chorus

|---------------------------------------|
|---------------------------------------|
|---------------------------------------|
|-8-8--8--8-8--8--8-8---3-3-3-3-3-3-3-3-|
|-8-12-10-8-12-10-8-12--3-3-3-3-3-3-3-3-|
|-8-8--8--8-8--8--8-8---3-3-3-3-3-3-3-3-|

|----------------------------------------|
|----------------------------------------|
|----------------------------------------|
|-8-8--8--8-8--8--8-8---3-3-3-3-3--7-7-7-|
|-8-12-10-8-12-10-8-12--3-3-3-3-3--7-7-7-|
|-8-8--8--8-8--8--8-8---3-3-3-3-3--7-7-7-|

**Up strokes on the 7’s

|--------------------------------------------|
|--------------------------------------------|
|--------------------------------------------|
|-8-8--8--8-8--8--8-8---8-8--8--8-8--8--8-8--|
|-8-12-10-8-12-10-8-12--8-12-10-8-12-10-8-12-|
|-8-8--8--8-8--8--8-8---8-8--8--8-8--8--8-8--|

|-----------------------------------------------|
|-----------------------------------------------|
|-----------------------------------------------|
|-8-8-8-8-8-8-8-8--1-1-1-1-1-1-0~--1-1-1-1-1-0~-|
|-8-8-8-8-8-8-8-8--1-1-1-1-1-1-0~--1-1-1-1-1-0~-|
|-8-8-8-8-8-8-8-8--1-1-1-1-1-1-0~--1-1-1-1-1-0~-|

Verse

|----------------------|
|-777-88-77-88-8-6-6-6-|
|-777-77-77-77-7-6-6-6-|
|-999-99-99-99-9-9-9-9-|
|----------------------|
|----------------------|

|----------------------|
|-777-88-77-88-8-6-6-6-|
|-777-77-77-77-7-6-6-6-|
|-999-99-99-99-9-9-9-9-|
|----------------------|
|----------------------|

|----------------------|
|-777-88-77-88-8-6-6-6-|
|-777-77-77-77-7-6-6-6-|
|-999-99-99-99-9-9-9-9-|
|----------------------|
|----------------------|

|----------------------|
|-777-88-77-88-8-6-6-6-|
|-777-77-77-77-7-6-6-6-|
|-999-99-99-99-9-9-9-9-|
|----------------------|
|----------------------|

|----------------------|
|-777-88-77-88-8-6-6-6-|
|-777-77-77-77-7-6-6-6-|
|-999-99-99-99-9-9-9-9-|
|----------------------|
|----------------------|

|----------------------|
|-777-88-77-88-8-6-6-6-|
|-777-77-77-77-7-6-6-6-|
|-999-99-99-99-9-9-9-9-|
|----------------------|
|----------------------|

|----------------------|
|-777-88-77-88-8-6-6-6-|
|-777-77-77-77-7-6-6-6-|
|-999-99-99-99-9-9-9-9-|
|----------------------|
|----------------------|

|----------------------|
|-777-88-77-88-8-6-6-6-|
|-777-77-77-77-7-6-6-6-|
|-999-99-99-99-9-9-9-9-|
|----------------------|
|----------------------|

Chorus      Guitar 2

**Strum the 8, 12, & 10’s in the chorus

|---------------------------------------|
|---------------------------------------|
|---------------------------------------|
|-8-8--8--8-8--8--8-8---3-3-3-3-3-3-3-3-|
|-8-12-10-8-12-10-8-12--3-3-3-3-3-3-3-3-|
|-8-8--8--8-8--8--8-8---3-3-3-3-3-3-3-3-|

|----------------------------------------|
|----------------------------------------|
|----------------------------------------|
|-8-8--8--8-8--8--8-8---3-3-3-3-3--7-7-7-|
|-8-12-10-8-12-10-8-12--3-3-3-3-3--7-7-7-|
|-8-8--8--8-8--8--8-8---3-3-3-3-3--7-7-7-|

**Up strokes on the 7’s

|--------------------------------------------|
|--------------------------------------------|
|--------------------------------------------|
|-8-8--8--8-8--8--8-8---8-8--8--8-8--8--8-8--|
|-8-12-10-8-12-10-8-12--8-12-10-8-12-10-8-12-|
|-8-8--8--8-8--8--8-8---8-8--8--8-8--8--8-8--|

|-----------------------------------------------|
|-----------------------------------------------|
|-----------------------------------------------|
|-8-8-8-8-8-8-8-8--1-1-1-1-1-1-0~--1-1-1-1-1-0~-|
|-8-8-8-8-8-8-8-8--1-1-1-1-1-1-0~--1-1-1-1-1-0~-|
|-8-8-8-8-8-8-8-8--1-1-1-1-1-1-0~--1-1-1-1-1-0~-|

|--------------------------|
|--------------------------|
|--------------------------|
|-1-1-1-1-1-1-0~--1-1-1-1--|
|-1-1-1-1-1-1-0~--1-1-1-1--|
|-1-1-1-1-1-1-0~--1-1-1-1--|

End


Well that’s it
Oh and while the guitar two plays this...
|----------------------|
|-777-88-77-88-8-6-6-6-|
|-777-77-77-77-7-6-6-6-|
|-999-99-99-99-9-9-9-9-|
|----------------------|
|----------------------|

Guitar one strums...
|---|
|---|
|-9-|
|-9-|
|-7-|
|---|
Suggest correction
Give kudos to tab author, rate the tab!
1 2 3 4 5
comments
print report bad tab
guest
You may want to rate the tab now too:
select rating
Wanna post a correction for this tab? Suggest correction