Oops, an error
Loading. Please wait.

Some Things Tab

52 views 1 this week
no commentswrite comment
1 2 3 4 5
please rate
add to favorites
launch autoscroll
font size
0
reset
how to read this tab
guitar tuner
Autoscroll
slow
fast
+/-
esc
set tempo
stop
Help us to improve Ultimate-Guitar.com Take our survey!
×
-------------------------------------------------------------------------------
                             Some Things - None the Wiser
-------------------------------------------------------------------------------
Tabbed by: Elliott 
Email: stiflersez@aol.com
written by: Elliott Bartell (guitarist, None the Wiser)

Tuning: Standard

Intro:
e|---------------------------------------------------------------------------|
B|--5--5--0------------------------------------------------------------------|
G|--6--6--0-------------------------9----------------------------------------|
D|--7--7--7---7--7--7----x--x--9----9--x----5----5--5----x--x------x4--------|
A|------------5--5--5----x--x--7----7--x----3----3--3----x--x----------------|
E|---------------------------------------------------------------------------|

   Let Ring
e|---------------------------------------------------------------------------|
B|---------------------------------------------------------------------------|
G|----7-------------------7--------------------------------------------------|
D|----7-------------------7--------------------------------------------------|
A|----5-------------------5--------------------------------------------------|
E|---------------------------------------------------------------------------|

Verse:
e|---------------------------------------------------------------------------|
B|---------------------------------------------------------------------------|
G|-------------7--x--x---------------------------------------------7--x--x---|
D|--7--x--x----7--x--x--7--x----9--x--x--7--x--x--7--x----7--x--x--7--x--x---|
A|--7--x--x----5--x--x--7--x----9--x--x--7--x--x--7--x----7--x--x--5--x--x---|
E|--5--x--x-------------5--x----7--x--x--5--x--x--5--x----5--x--x------------|

e|---------------------------------------------------------------------------|
B|---------------------------------------------------------------------------|
G|---------------------------------------------------------------------------|
D|--7--x----5--x--x--7--x--x--7--x-------------------------------------------|
A|--7--x----5--x--x--7--x--x--7--x----x5-------------------------------------|
E|--5--x----3--x--x--5--x--x--5--x-------------------------------------------|

Pre-Chorus (Let each chord ring):
e|---------------------------------------------------------------------------|
B|---------------------------------------------------------------------------|
G|--------7-------------------7----------------------First set x2------------|
D|--7--|--7----7----9----7----7----7----5----7-------Second Set x1-----------|
A|--7--|--5----7----9----7----5----7----5----7-------------------------------|
E|--5--|-------5----7----5---------5----3----5-------------------------------|

Chorus:
e|---------------------------------------------------------------------------|
B|--5--5--0------------------------------------------------------------------|
G|--6--6--0-------------------------9----------------------------------------|
D|--7--7--7---7--7--7----x--x--9----9--x----5----5--5----x--x------x6--------|
A|------------5--5--5----x--x--7----7--x----3----3--3----x--x----------------|
E|---------------------------------------------------------------------------|


   Let Ring
e|---------------------------------------------------------------------------|
B|---------------------------------------------------------------------------|
G|----7-------------------7--------------------------------------------------|
D|----7-------------------7--------------------------------------------------|
A|----5-------------------5--------------------------------------------------|
E|---------------------------------------------------------------------------|

Repeat Verse (x5)

Repeat Chorus (x6)

Bridge(the second note of every chord is palm muted): (Each PM chord is strummed repeatedly)
e|---------------------------------------------------------------------------|
B|---------------------------------------------------------------------------|
G|--7--7----------------------------7--7-------------------------------------|
D|--7--7----7--7----9--9----7--7----7--7----7--7----5--5----7--7----x2-------|
A|--5--5----7--7----9--9----7--7----5--5----7--7----5--5----7--7-------------|
E|----------5--5----7--7----5--5------------5--5----3--3----5--5-------------|  
Second Time through, play last chord and PM line twice

e|---------------------------------------------------------------------------|
B|--5--5--0------------------------------------------------------------------|
G|--6--6--0-------------------------9----------------------------------------|
D|--7--7--7---7--7--7----x--x--9----9--x----5----5--5----x--x------x2--------|
A|------------5--5--5----x--x--7----7--x----3----3--3----x--x----------------|
E|---------------------------------------------------------------------------|
-|

e|---------------------------------------------------------------------------|
B|--5--5--0------------------------------------------------------------------|
G|--6--6--0-------------------------9----------------------------------------|
D|--7--7--7---7--7--7----x--x--9----9--x----12----12--12----x--x-------------|
A|------------5--5--5----x--x--7----7--x----10----10--10----x--x-------------|
E|---------------------------------------------------------------------------|

e|---------------------------------------------------------------------------|
B|--5--5--0------------------------------------------------------------------|
G|--6--6--0-------------------------9----------------------------------------|
D|--7--7--7---7--7--7----x--x--9----9--x----14----14--14----x--x-------------|
A|------------5--5--5----x--x--7----7--x----12----12--12----x--x-------------|
E|---------------------------------------------------------------------------|

e|---------------------------------------------------------------------------|
B|--5--5--0------------------------------------------------------------------|
G|--6--6--0--------------------------14--------------------------------------|
D|--7--7--7---7--7--7----x--x--14----14--x----12----12--12----x--x-----------|
A|------------5--5--5----x--x--12----12--x----10----10--10----x--x-----------|
E|---------------------------------------------------------------------------|

e|---------------------------------------------------------------------------|
B|--5--5--0------------------------------------------------------------------|
G|--6--6--0--------------------------12--------------------------------------|
D|--7--7--7---7--7--7----x--x--12----12--x----9----9--9----x--x--------------|
A|------------5--5--5----x--x--10----10--x----7----7--7----x--x--------------|
E|---------------------------------------------------------------------------|

Outro:
e|---------------------------------------------------------------------------|
B|--5--5--0------------------------------------------------------------------|
G|--6--6--0-------------------------9----------------------------------------|
D|--7--7--7---7--7--7----x--x--9----9--x----5----5--5----x--x------x8--------|
A|------------5--5--5----x--x--7----7--x----3----3--3----x--x----------------|
E|---------------------------------------------------------------------------|


   Let Ring
e|---------------------------------------------------------------------------|
B|---------------------------------------------------------------------------|
G|----7----------------------------------------------------------------------|
D|----7----------------------------------------------------------------------|
A|----5----------------------------------------------------------------------|
E|---------------------------------------------------------------------------|

Lyrics:

Can you hear me screamin', yeah!
Screamin' at the top of my voice, yeah!
I think it's time to solve this fight, yeah!
Ready to make it up to you, oh no...

'Cause you are the one that I can always talk to,
You are the one that I will always care for,
and you are the one that I am meant to be with,
Don't lets it fall to pieces.

Chorus:
Will... this ever end?
I want... all this to end,
I want... to be with you,
But I guess... some things don't work.

Can you see me bitchin', yeah!
Bitchin' over the fact that we're apart!
Can you you just try to understand, yeah!
that you and I are meant to be, oh no...

You were the one that I could always talk to,
You were the one that I would always care for,
and you were the one that I was meant to be with,
but then it fell to pieces.

(Chorus Repeat)

Once again,
It's happenned again,          x2    
Once again,
It's never gonna end.               

(Chorus Repeat x2)

 


| /  slide up
| \  slide down
| h  hammer-on
| p  pull-off
| ~  vibrato
| +  harmonic
| x  Mute note
===============================================================================
Suggest correction
Give kudos to tab author, rate the tab!
1 2 3 4 5
comments
print report bad tab
guest
You may want to rate the tab now too:
select rating
Wanna post a correction for this tab? Suggest correction