Oops, an error
Loading. Please wait.

Doon Lang tab

288 views 3 this week
no commentswrite comment
1 2 3 4 5
3 more votes to show rating
add to favorites
×
Save as Personal and add changes to this tab that will be seen only by you. Learn more ›
×
You can save this tab as Personal to edit and correct it or add notes. All changes will be seen only by you. Learn more »
launch autoscroll
font size
0
reset
how to read this tab
guitar tuner
edit
Autoscroll
slow
fast
+/-
esc
set tempo
stop
Author
Difficulty
DOON LANG by Nonoy Zuñiga

Tabs written and arranged by Edwin-E (in YouTube)
Blog: http://guitarplucking.blogspot.com
Facebook Page: EGuitar

Video Tutorial:  http://www.youtube.com/watch?v=3FqiypIa6tg

E|--0--1--3--1--0-----0--------0--0--------0--|
B|-----------------3-----1--3-----------1--2--|
G|-----------------------------------2-----0--|
D|--------------------------------3--------2--|
A|--------3-----------0-----------------------|
E|--------------------------------------------|

Kung natapos ko ang aking pag-aaral

E|--1--3--3/5--3--1--0--1-----0--1--------------3--|
B|-------------------------3--------0-----------0--|
G|-------------------------------------------0--0--|
D|----------0-----------0-----------------0-----0--|
A|-------------------------------------2--------2--|
E|----------------------------------3-----------3--|

Din sin sanay mayroon na akong dangal

E|--3--5--5/7--8--7--5--4--4--5--7--5--7--7/8-----|
B|------------------------------------------------|
G|------------------------------------------------|
D|------------------------------------------------|
A|----------------------------------0----------0--|
E|----------0-------------------------------------|

Na ihaharap sa iyo at ipagyayabang

E|--5--5--3--2--0-----2--2/5--8--7--5--3-----------3--|
B|---------- ------3-------------------------------3--|
G|--------- ------------------------------------4--4--|
D|-------- --0-----------0-------------------5-----5--|
A|----------- ----------------------------5--------5--|
E|------------ ------------------------3-----------3--|

Sa panaginip lang ako may ipagdiriwang

E|--0--1--3--1--0-----0-------0--0--------0--|
B|-----------------3-----1h3-----------1--2--|
G|----------------------------------2-----0--|
D|-------------------------------3--------2--|
A|--------3-----------0----------------------|
E|-------------------------------------------|

Yaman at katanyagan sa akin ay wala


E|--1--3--3/5--3--1--0--1-----0--1--1--------3--|
B|-------------------------3-----------0--0--0--|
G|-------------------------------------------0--|
D|----------0-----------0--------------------0--|
A|-------------------------------------------2--|
E|----------------------------------3--------3--|

Kakisigan ko ay bunga ng isang sumpa


E|--3--5--5/7--8--7--5--4--4--5--7--5--7--7/8-----|
B|------------------------------------------------|
G|------------------------------------------------|
D|------------------------------------------------|
A|----------------------------------0----------0--|
E|----------0-------------------------------------|

Ang aking inay ang tangi kong tagahanga

E|--5--5--3--2--0-----2--2/5--8--7--5--3-----------3--|
B|---------- ------3-------------------------------3--|
G|--------- ------------------------------------4--4--|
D|-------- --0-----------0-------------------5-----5--|
A|----------- ----------------------------5--------5--|
E|------------ ------------------------3-----------3--|

Mga pangarap nyang walang pangangamba


CHORUS

E|--0--0--1-----8--8--8--8--5--7--8--8-------|
B|-----------8-------------------------------|
G|--------------------------------------7--7-|
D|-------------------------------------------|
A|-----------------------------------5-------|
E|-----------8-----------5-------------------|

Doon ay kaya kong ipunin lahat ng bituin,  Doon ay kaya kong igapos ang ihip ng hangin


E|-----------7--5--7--8--10--8--7--5--7--3-----3--3--|
B|--------6---------------------------------5-----3--|
G|--7--7------------------------------------------4--|
D|------------------------------------------------5--|
A|-----------------------10-----------3-----------5--|
E|-----------3------------------------------------3--|


Doon ay kaya kong igapos ang ihip ng hangin


E|--0--0--1-----8--8--8--5--7--8--12------10--|
B|-----------8------------------------10------|
G|--------------------------------------------|
D|--------------------------------------------|
A|--------------------------------8-----------|
E|-----------8--------5-----------------------|

Doon ay kaya kong ipagbawal buhos ng ulan


E|--10--10--8--3--5--7--5--7--5--3--1--1--3/5--5--7--7--8--8---|
B|---------------------------------------------------------8---|
G|---------------------------------------------------------9---|
D|-------------------------------0-------------------------10--|
A|-------------------------0-------------------------------10--|
E|-------------0-------------------------------3--------8--8---|

Sa panaginip lang kita mahahagkan tuwina, Doon lang.

E|--10--10--8--3--5--7--5--7--5--3--1--1--3/5--5-----------------0-|
B|------------------------------------------------4--4--2--------1-|
G|------------------------------------------------------------0--0-|
D|-------------------------------0-------------------------2-----2-|
A|-------------------------0----------------------------3--------3-|
E|-------------0-------------------------------3-----------------x-|

Sa panaginip lang kita mahahagkan tuwina, Doon lang.

            
            
Suggest correction
Creating personal tab
Creating personal tab
You can edit any tab online and save it as your Personal.

You can edit, replace or remove any tab part or add personal notes – all changes will be seen only by you.

Personal tabs can be accessed anytime from any device, even offline.
Learn more »
Give kudos to tab author, rate the tab!
1 2 3 4 5
comments
print report bad tab
guest
You may want to rate the tab now too:
select rating
Wanna post a correction for this tab? Suggest correction