Oops, an error
Loading. Please wait.

Love Song tab

149 views 1 this week
no commentswrite comment
1 2 3 4 5
3 more votes to show rating
add to favorites
×
Save as Personal and add changes to this tab that will be seen only by you. Learn more ›
×
You can save this tab as Personal to edit and correct it or add notes. All changes will be seen only by you. Learn more »
launch autoscroll
font size
0
reset
how to read this tab
guitar tuner
edit
Autoscroll
slow
fast
+/-
esc
set tempo
stop
Hola que tal? es mi primer aporte, aunque le falta una parte pequeña,
seguro se van a dar cuenta cual es.
Apareceria en la parte donde estan los signos de pregunta.
Espero que entiendan lo que hice, cualquier cosa corrijanme..
no entiendo mucho de guitarra. esto lo saque a oido,
asi que sepan disculpar!
Un tema hermoso que me identifica hoy en dia
por cosas buenas que me estan pasando!
Gracias nonpa!


------------------------------------------
------------------------------------------
------------------------------------------
--------10--10--------10---12---10------10-----?????
10--13---------10--13---------------13----
------------------------------------------


-------------------------------------
------13--11--11s15--13--11---13---11
12--10-------------------------------
-------------------------------------
-------------------------------------
-------------------------------------


--------10--13--11--10---------------------
11--13-----------------13--11-------11--13-
-------------------------------------------
-------------------------------------------
-------------------------------------------
-------------------------------------------


-10--13--11--10------------------------------
-----------------13--11-----13--13-----15--15
---------------------------------------------
---------------------------------------------
---------------------------------------------
---------------------------------------------


15--13---------------------------------------
-------16--15--13--15--16--15--13--11--13--11
---------------------------------------------
---------------------------------------------
---------------------------------------------
---------------------------------------------

            
            
Suggest correction
Creating personal tab
Creating personal tab
You can edit any tab online and save it as your Personal.

You can edit, replace or remove any tab part or add personal notes – all changes will be seen only by you.

Personal tabs can be accessed anytime from any device, even offline.
Learn more »
Give kudos to tab author, rate the tab!
1 2 3 4 5
comments
print report bad tab
guest
Wanna post a correction for this tab? Suggest correction