Oops, an error
Loading. Please wait.

Another Mistake Tab

475 views 3 this week
no commentswrite comment
1 2 3 4 5
excellent!
x 1
add to favorites
launch autoscroll
font size
0
reset
how to read this tab
guitar tuner
Tab Pro tools
  • play this tab
  • loop segment
  • change instrument
  • show fretboard
  • metronome
Autoscroll
slow
fast
+/-
esc
set tempo
stop
Contributor
Difficulty
Tuning
intermediate
D A D G B E
Nonpoint: Another Mistake

Transcribed by: mysticguitar77

YouTube Username: MysticGuitar77

Date last modified: January 4, 2013

Tuning: Drop D (D,A,D,G,B,E)

Riff 1
E|-----------------------------------------------------------|
B|-----------------------------------------------------------|
G|-5----5/7-7------------------10--10-10-10-10-10-------10---|
D|-5----5/7-7------------------8---8--8--8--8-----8--------8-|
A|-3--0-3/5-5--7b9r7-5-8-7-5-0-8---8--8--8--8-------8--------|
D|----0------------------------8---8--8--8--8---------8------|
      *                               *  *

E|----------------------------------------------------|
B|----------------------------------------------------|
G|-5----5/7-7-------------------10--10-10-10-10----10-|
D|-5----5/7-7--7*b9r7-5-8-7-5-0-10--10-10-10-10----10-|
A|-3--0-3/5-5-------------------8---8--8--8--8-----8--|
D|----0-------------------------8---8--8--8--8-----8--|
      *                                *  *
               ^ pinch harmonic (Guitar 2 does this part
                 while Guitar 1 plays the first half again)

Riff 2    "War is calling for both sides to draw their arms..."
E|---------------0-------------------3---------| <
B|-----------3-----3-------------5-------------| < (let these high notes
G|-------------2-----2-------------5-----------| <  ring out)
D|---------------------------------------3/7-7-|
A|-000000000-----------333333333---------3/7-7-|
D|-000000000-----------333333333---------3/7-7-|
   ********            ********

E|---------------0-------------------3---------|
B|-----------3-----3-------------5-------------|
G|-------------2-----2-------------5-----------|
D|---------------------------------------3-5-5-|
A|-000000000-----------333333333---------3-3-3-|
D|-000000000-----------333333333---------3-5-5-| 
   ********            ********

Riff 3   "Better be on your game..."
E|------------------------------------------------3----|
B|--------------------------------------------5------5-|
G|----------------------------------------------5------|
D|---------9--5--5/7------0-----------3--5--3----------|
A|---------7--3--3/5--0---0-----------3--3--3----------|
D|-00000000-00-00---000---0---333333333335333----------|
   ******** ** **   **        ******** ** **

E|------------------------------------------------------|
B|------------------------------------------------------|
G|------------------------------------------------------|
D|---------9--5--5/7------0-----------3--5--8--7--3-----|
A|---------7--3--3/5--0---0-----------3--3--8--7--3-----|
D|-00000000-00-00---000---0---333333333335338--7--3--2*-|
   ******** ** **   **        ******** ** **         ^ pinch harmonic

Riff 4   "Another mistake, another mistake..."
E|-----------------------------------------------------------|
B|-----------------------------------------------------------|
G|-5-5-5-5-5/7-----------------10--10-10-10-10-10-------10---|
D|-5-5-5-5-5/7-----------------8---8--8--8--8-----8--------8-|
A|-3-3-3-3-3/5-7b9r7-5-8-7-5-0-8---8--8--8--8-------8--------|
D|-----------------------------8---8--8--8--8---------8------|
       * *                            *  *

E|--------------------------------------------------|
B|--------------------------------------------------|
G|-5-5-5-5-5/7-----------------10--10-10-10-10---10-|
D|-5-5-5-5-5/7-7b9r7-5-8-7-5-0-10--10-10-10-10---10-|
A|-3-3-3-3-3/5-----------------8---8--8--8--8----8--|
D|-----------------------------8---8--8--8--8----8--|
       * *                            *  *

Fill   "It's gonna leave you knockin' on the door of death..."
E|--------------------------------------------|
B|--------------------------------------------|
G|-10-10-10-9-9-9-12-12-12-10-10-10-9-10-9-10-| 
D|-8--8--8--8-8-8-8--8--8--8--8--8--8-8--8-8--|
A|--------------------------------------------|
D|--------------------------------------------|

E|-------------------------------------------------|
B|-------------------------------------------------|
G|-10-10-10-9--9--9--12-12-12-10-10-10-9--10-9--10-|
D|-10-10-10-10-10-10-10-10-10-10-10-10-10-10-10-10-|
A|-------------------------------------------------|
D|-------------------------------------------------|

Play Riff 2 x1   "Burn, temperature rising..."
Play Riff 3 x1   "So you never want to listen to me..."

Riff 3 ending alteration (picks up at last few chords)
E|----------|
B|----------|
G|----------|
D|-8--7-----|
A|-8--7--5*-|
D|-8--7-----|
         ^ pinch harmonic

Play Riff 4 x1   "Another mistake, another mistake..."

Riff 5   "It's gonna leave you knockin' on the door of death..."
E|--------------------------------------------|
B|--------------------------------------------|
G|-10-10-10-9-9-9-12-12-12-10-10-10-9-10-9-10-|
D|-8--8--8--8-8-8-8--8--8--8--8--8--8-8--8-8--|
A|--------------------------------------------|
D|--------------------------------------------|

E|-------------------------------------------------|
B|-------------------------------------------------|
G|-10-10-10-9--9--9--12-12-12-10-10-10-9--10-9--10-|
D|-10-10-10-10-10-10-10-10-10-10-10-10-10-10-10-10-|
A|-------------------------------------------------|
D|-------------------------------------------------|

E|--------------------------------------------|
B|--------------------------------------------|
G|-10-10-10-9-9-9-12-12-12-10-10-10-9-10-9-10-|
D|-0--0--0--0-0-0-0--0--0--0--0--0--0-0--0-0--|
A|--------------------------------------------|
D|--------------------------------------------|

E|-------------------------------------------------|
B|-------------------------------------------------|
G|-14-14-14-12-12-12-15-15-15-14-14-14-12-14-12-14-|
D|-12-12-12-12-12-12-12-12-12-12-12-12-12-12-12-12-|
A|-------------------------------------------------|
D|-------------------------------------------------|
                     ^ ends here last time through

Play Riff 5 x3   "What happens to you is not so obvious..."

Riff 6 (alteration of the chorus riff) "Another mistake, another mistake..."
E|-----------------------------------------------------|
B|-----------------------------------------------------|
G|-5-5-5/7-7-------------10--10-10-10-10-10-------10---|
D|-5-5-5/7-7-0-0-0-0-0-0-8---8--8--8--8-----8--------8-|
A|-3-3-3/5-5-0-0-0-0-0-0-8---8--8--8--8-------8--------|
D|-----------0-0-0-0-0-0-8---8--8--8--8---------8------|
                                *  *

E|--------------------------------------------------------|
B|--------------------------------------------------------|
G|-5-5-5/7-7-------------10--10-10-10-10--10-10-10-10--10-|
D|-5-5-5/7-7-0-0-0-0-0-0-10--10-10-10-10--10-10-10-10--10-|
A|-3-3-3/5-5-0-0-0-0-0-0-8---8--8--8--8---8--8--8--8---8--|
D|-----------0-0-0-0-0-0-8---8--8--8--8---8--8--8--8---8--|
                                *  *         *  *

Play Riff 6 x2 (another guitar just plays it the original way underneath)

Ending
E|-----------------------------------|
B|-----------------------------------|
G|-----------------------------------|
D|-------------------5h7-7-------10~-|
A|-3--3-3/5-5--5-3/5----------8~-----|
D|-------------------------8~--------|

Enjoy!!
comments
We did not receive enough feedback on this tab! Please rate:
print report bad tab
1 2 3 4 5
I want to post or [tab]
guest
You may want to rate the tab now too:
select rating
Please do not post tabs as comments. Select "correction" instead!