Oops, an error
Loading. Please wait.

Go Time Tab

282 views 1 this week
2 commentsread comments
1 2 3 4 5
x 4
add to favorites
launch autoscroll
font size
0
reset
how to read this tab
guitar tuner
Autoscroll
slow
fast
+/-
esc
set tempo
stop
Help us to improve Ultimate-Guitar.com Take our survey!
×
Author
Difficulty
Tuning
novice
A E A D F# B
Nonpoint: Go Time

Transcribed by: mysticguitar77

YouTube Username: MysticGuitar77

Date last modified: January 5, 2013

Tuning: Drop A (A,E,A,D,G,B,E) *7-string recommended

Riff 1
E|-11-11-11-------11-11-11-------11-11-11-----------------------|
B|-x--x--x--------x--x--x--------x--x--x------------------------|
G|-7--7--7--------7--7--7--------7--7--7------------------------|
D|--------------------------------------------------------------|
A|--------------------------------------------------------------|
E|------------------------------------------------3-2-------0h1-|
A|----------0-1-0----------0-1-0----------0-1-0-1-----3-1-0-----|

Play Riff 1 x2

Riff 2   "It's kill or be killed time..."
E|-----------------------------------------------------|
B|-----------------------------------------------------|
G|-----------------------------------------------------|
D|-----------------------------------------------------|
A|-----------------------------------------------------|
E|------------------5h6---0-0-0----------3-2-------0h1-|
A|-0--0--001-0--0-6-----6-0-0-0--0-1-0-1-----3-1-0-----|
         **               * * *

E|------------------------11-11-11------------------------|
B|------------------------x--x--x-------------------------|
G|------------------------7--7--7-------------------------|
D|--------------------------------------------------------|
A|--------------------------------------------------------|
E|----------------5---5h6------------------3-2------------|
A|-0--0--001-0--0---0--------------0-1-0-1-----3-1-0-5ph~-|
         **     *   *

E|-----------------------------------------------------|
B|-----------------------------------------------------|
G|-----------------------------------------------------|
D|-----------------------------------------------------|
A|-----------------------------------------------------|
E|------------------5h6---0-0-0----------3-2-------0h1-|
A|-0--0--001-0--0-6-----6-0-0-0--0-1-0-1-----3-1-0-----|
         **               * * *

E|-------------------------11-11-11-----------------------|
B|-------------------------x--x--x--------------------3b5-|
G|-------------------------7--7--7------------------------|
D|--------------------------------------------------------|
A|--------------------------------------------------------|
E|----------------9---9h10------------------3-2-----------|
A|-0--0--001-0--0---0---------------0-1-0-1-----3-1-0-----|
         **     *   *

Riff 3   "It's go time, time to go..."
E|---------------------------------|
B|---------------------------------|
G|---------------------------------|
D|---------7/8-8---5-5-5-----------|
A|-0-0-0-0-7/8-8---5-5-5-----------|   x3
E|-0-0-0-0-5/6-6---3-3-3---1-3-2h3-|
A|-0-0-0-0-------0-------3---3-2h3-|

         "Are you inside or not..."
E|---------------------------------|
B|---------------------------------|
G|---------------------------------|
D|---------------------------------|
A|---------------------------------|
E|-2-2-2-2-2-2-2-2-2/3-3-3-3/5-5-5-|
A|-2-2-2-2-2-2-2-2-2/3-3-3-3/5-5-5-|

Riff 4   "It's go time, the time to go..."
E|---------------------------------|
B|---------------------------------|
G|---------------------------------|
D|---------7/8---5-----------------|
A|---------7/8---5-----------------|   x3
E|-0-0-0-0-5/6---3---------1-------|
A|-0-0-0-0-----0---0-0-0-3---3-2h3-|
   * * * *     *   * * *

         "Are you inside or not..."
E|---------------------------------|
B|---------------------------------|
G|---------------------------------|
D|---------------------------------|
A|---------------------------------|
E|-2-2-2-2-2-2-2-2-2/3-3-3-3/5-5-5-|
A|-2-2-2-2-2-2-2-2-2/3-3-3-3/5-5-5-|

Play Riff 2 x1   "The last man standing with a bat in my hand..."
Play Riff 3 x1   "It's go time, time to go..."
Play Riff 4 x1   "It's go time, the time to go..."

Fill 1   "Show me what you got, go..."
E|------------------------------|
B|------------------------------|
G|------------------------------|
D|------------------------------|
A|----------------------2-----3-|
E|------------------------------|
A|-6-3-0--6-3-0-2-3-2-0---0-2---|

Riff 5   "Build it up just to break it all down..."
E|-----------------------------|
B|-----------------------------|
G|-----------------------------|
D|-----------------------------|
A|-----------------------------|
E|-6-3-0--6-3-0-3-0-2--2-3-0-2-|
A|-6-3-0--6-3-0-3-0-2--2-3-0-2-|
       
Play Riff 5 x6 (1st 4 times, don't let the chords ring out, for the final
                2 times, let them ring out)

Riff 5a
E|-----------------------------|
B|-----------------------------|
G|-----------------------------|
D|-----------------------------|
A|-6-3-0--6-3-0-3-0-2--2-3-0-2-|
E|-----------------------------|
A|-----------------------------|

Play Riff 5a x2
Play Riff 1  x1 (ends the same way the verses do rather than the
                 original ending)
Play Riff 3  x1   "It's go time, time to go..."
Play Riff 4  x1   "It's go time, the time to go..."
Play Riff 5  x2
Play Riff 1  x1 (the final 0h1 is omitted and ends on the open low A note)

Enjoy!!
Suggest correction
comments
print report bad tab
2 comments total.
0 reply
Hewentojared 33 Jan 24, 2013 11:53 PM

 
E|-11-11-11-------11-11-11-------11-11-11-----------------------|
B|-x--x--x--------x--x--x--------x--x--x------------------------|
G|-7--7--7--------7--7--7--------7--7--7------------------------|
D|--------------------------------------------------------------|
A|--------------------------------------------------------------|
E|------------------------------------------------3-2-------0h1-|
A|----------0-1-0----------0-1-0----------0-1-0-1-----3-1-0-----|
]


I feel like that should be

--------------------------------------------------------------|
B|---4-4-4--------------------------------------------------------|
G|----7-7-7-------------------------------------------------------|
D|--------------------------------------------------------------|
A|--------------------------------------------------------------|
E|------------------------------------------------3-2-------0h1-|
A|----------0-1-0----------0-1-0----------0-1-0-1-----3-1-0-----|
E|

0 reply
Hewentojared 33 Jan 24, 2013 11:55 PM

I jacked that up. I meant



E|----------------------------------------------------------------|
B|---4-4-4---------4-4-4------------4-4-4-------------------------------|
G|----7-7-7---------7-7-7------------7-7-7------------------------------|
D|----------------------------------------------------------------|
A|----------------------------------------------------------------|
E|--------------------------------------------------3-2-------0h1-|
A|----------0-1-0----------0-1-0-----------0-1-0-1-----3-1-0-----|

guest
You may want to rate the tab now too:
select rating
Wanna post a correction for this tab? Suggest correction