Oops, an error
Loading. Please wait.

Never Ending Hole tab

202 views 3 this week
no commentswrite comment
1 2 3 4 5
1 last vote to show rating
add to favorites
×
Save as Personal and add changes to this tab that will be seen only by you. Learn more ›
×
You can save this tab as Personal to edit and correct it or add notes. All changes will be seen only by you. Learn more »
launch autoscroll
font size
0
reset
how to read this tab
guitar tuner
edit
Autoscroll
slow
fast
+/-
esc
set tempo
stop
Nonpoint: Never Ending Hole

Transcribed by: mysticguitar77

YouTube Channel: MysticGuitar77

Date last modified: September 28, 2014

Tuning: Drop C (C,G,C,F,A,D)

Riff 1
D|-------------------------------------------------------|
A|-------------------------------------------------------|
F|-------------------------------------------------------|
C|-------------------------------------------------------|
G|-0-0-----3p0--0--0--0--0--0-0-0-----3p0--0--0--0--0--0-|
C|-0-0-3h5------0--0--0--0--0-0-0-3h5------0--0--0--0--0-|
   * *                        * *  

D|----------------------------------------------------|
A|----------------------------------------------------|
F|----------------------------------------------------|
C|----------------------------------------------------|
G|-0-0-----3p0--0--0--0--0--0-3h5------3h5------3h5-3-|
C|-0-0-3h5------0--0--0--0--0-----0-5------0-5------3-|
   * *

Play Riff 1 x3   "Looking for a little relief or sunlight..."

Riff 2   "Feels like I'm never gonna get out of this never ending hole..."
D|-------------------------------------------------------------|
A|-------------------------------------------------------------|
F|-5--5-5-5-5-7--7-7-7-7-7-7-7-7-------------------------------|
C|-5--5-5-5-5-7--7-7-7-7-7-7-7-7-7--7-7-7-7-5--5-5-5-5-5-5-5-5-|
G|-3--3-3-3-3-5--5-5-5-5-5-5-5-5-3--3-3-3-3-1--1-1-1-1-1-1-1-1-|
C|-------------------------------3--3-3-3-3-1--1-1-1-1-1-1-1-1-|

D|-------------------------------------------------------------|
A|-------------------------------------------------------------|
F|-5--5-5-5-5-7--7-7-7-7-7-7-7-7------------3--3-3-3-3-3-3-3-3-|
C|-5--5-5-5-5-7--7-7-7-7-7-7-7-7-7--7-7-7-7-1--1-1-1-1-1-1-1-1-|
G|-3--3-3-3-3-5--5-5-5-5-5-5-5-5-3--3-3-3-3-1--1-1-1-1-1-1-1-1-|
C|-------------------------------3--3-3-3-3-1--1-1-1-1-1-1-1-1-|

D|-------------------------------------------------------------|
A|-------------------------------------------------------------|
F|-5--5-5-5-5-7--7-7-7-7-7-7-7-7-------------------------------|
C|-5--5-5-5-5-7--7-7-7-7-7-7-7-7-7--7-7-7-7-5--5-5-5-5-5-5-5-5-|
G|-3--3-3-3-3-5--5-5-5-5-5-5-5-5-3--3-3-3-3-1--1-1-1-1-1-1-1-1-|
C|-------------------------------3--3-3-3-3-1--1-1-1-1-1-1-1-1-|

D|------------------------------------------------------|
A|------------------------------------------------------|
F|-5--5-5-5-5-7--7-7-7-7-7-7-7-7------------------------|
C|-5--5-5-5-5-7--7-7-7-7-7-7-7-7-8--8-8-8-8-8-8-7--7--7-|
G|-3--3-3-3-3-5--5-5-5-5-5-5-5-5-8--8-8-8-8-8-8-7--7--7-|
C|-------------------------------8--8-8-8-8-8-8-7--7--7-|

Play Riff 1 x3   "I guess you forgot the promises that you made..."
Play Riff 2 x1   "Feels like I'm never gonna get out of this never ending hole..."

Riff 3
D|----------------------------------------------|
A|----------------------------------------------|
F|----------------------------------------------|
C|------------------------5--5---5---3--3-----3-|
G|-0-0-----3p0-0--0-0-0-3-3--3-0-3p0-1--1-0-0-1-|
C|-0-0-3h5-----0--0-0-0-3------0-----1--1-0-0---|
   * *              * *        *          * *

Solo rhythm (just chords, strumming pattern is the same as the chorus)
D|--------------------------|
A|--------------------------|
F|-5--7--------5--7--10--8--|
C|-5--7--3--1--5--7--10--8--| x2
G|-3--5--3--1--3--5--8---6--|
C|-------3--1---------------|

Solo
D|-----------------------------------------------------------------------|
A|----------------------------------------13h15-17b18r17-15h17-----------|
F|-------------------12-12b13r12----12h14----------------------14h15-12~-|
C|-0-3-5-0-5/7-12h15-------------15--------------------------------------|
G|-----------------------------------------------------------------------|
C|-----------------------------------------------------------------------|

D|-----------------------------------------------------------------------------|
A|--------------------------------------------------------------------------11-|
F|-9-9-9-9h10-10-10-10-10~--5/7-7-7ph--------9h10p9----10h12p10----12p10-------|
C|-------------------------------------10h12--------12----------12-------12----|
G|-----------------------------------------------------------------------------|
C|-----------------------------------------------------------------------------|
   * * *

D|-------------------------------------------------------------------------------------|
A|-------------------------------------------------------13-------15-------17-------18-|
F|-12b14--b14-b14-b14-b14-b14-b14r12--10h12-10~--10-9/10----10/12----12/14----14/15----|
C|-------------------------------------------------------------------------------------|
G|-------------------------------------------------------------------------------------|
C|-------------------------------------------------------------------------------------|

D|-12h13h15p13p12h13h15p13p12h13h15p13p12h13h15p13p12h13h15p13p12-15b~-|
A|---------------------------------------------------------------------|
F|---------------------------------------------------------------------|
C|---------------------------------------------------------------------|
G|---------------------------------------------------------------------|
C|---------------------------------------------------------------------|

Play Riff 3 x4   "I just wanna feel the edge..."
Play Riff 2 x1   "Feels like I'm never gonna get out of this never ending hole..."
                  (the beginning is delayed and starts on the 3rd chord this time)

Fill 1   "That you dig for me..."
D|-------------------------------------------------------------|
A|-------------------------------------------------------------|
F|-5--5-5-5-5-7--7-7-7-7-7-7-7-7-------------------------------|
C|-5--5-5-5-5-7--7-7-7-7-7-7-7-7-7--7-7-7-7-5--5-5-5-5-5-5-5-5-|
G|-3--3-3-3-3-5--5-5-5-5-5-5-5-5-3--3-3-3-3-1--1-1-1-1-1-1-1-1-|
C|-------------------------------3--3-3-3-3-1--1-1-1-1-1-1-1-1-|

D|-------------------------------------------|
A|-------------------------------------------|
F|-5--5-5-5-5-7--7-7-7-7-7-7-7-7-10---10---8-|
C|-5--5-5-5-5-7--7-7-7-7-7-7-7-7-10---10---8-|
G|-3--3-3-3-3-5--5-5-5-5-5-5-5-5-8--0-8--0-6-|
C|----------------------------------0----0---|
                                    *    *

Ending
D|-------------------------------------------------------|
A|-------------------------------------------------------|
F|-------------------------------------------------------|
C|-------------------------------------------------------|
G|-0-0-----3p0--0--0--0--0--0-0-0-----3p0--0--0--0--0--0-|
C|-0-0-3h5------0--0--0--0--0-0-0-3h5------0--0--0--0--0-|
   * *                       * *

D|------------------------------------------|
A|------------------------------------------|
F|------------------------------------------|
C|------------------------------------------|
G|-0-0-----3p0--0--0--0--0--0-0-0-----3p0-0-|
C|-0-0-3h5------0--0--0--0--0-0-0-3h5-----0-|
   * *                        * *

Enjoy!!


            
            
Suggest correction
Creating personal tab
Creating personal tab
You can edit any tab online and save it as your Personal.

You can edit, replace or remove any tab part or add personal notes – all changes will be seen only by you.

Personal tabs can be accessed anytime from any device, even offline.
Learn more »
Give kudos to tab author, rate the tab!
1 2 3 4 5
comments
print report bad tab
guest
You may want to rate the tab now too:
select rating
Wanna post a correction for this tab? Suggest correction