Oops, an error
Loading. Please wait.

Temper Tab

236 views 1 this week
no commentswrite comment
1 2 3 4 5
excellent!
x 3
add to favorites
launch autoscroll
font size
0
reset
how to read this tab
guitar tuner
Autoscroll
slow
fast
+/-
esc
set tempo
stop
Help us to improve Ultimate-Guitar.com Take our survey!
×
Author
Difficulty
Tuning
intermediate
D A D G B E
Nonpoint: Temper

Transcribed by: mysticguitar77

YouTube Username: MysticGuitar77

Date last modified: January 3, 2013

Tuning: Drop D (D,A,D,G,B,E)

Riff 1
E|-------------------------------------------------|
B|-------------------------------------------------|
G|-------------------------------------------------|
D|-------------------------------------------------|
A|-------------------------------------------------|
D|-8-0-0-0-7-0-0-0-1p0-1p0-0-0-3-0-0-0-3-0-0-3/5-5-|

E|-------------------------------------------|
B|-------------------------------------------|
G|-------------------------------------------|
D|-------------------------------------------|
A|-------------------------------------------|
D|-8-0-0-0-7-0-0-0-1p0-1p0-x-x-3-3-x-x-5-5-5-|

E|-------------------------------------------------|
B|-------------------------------------------------|
G|-------------------------------------------------|
D|-------------------------------------------------|
A|-------------------------------------------------|
D|-8-0-0-0-7-0-0-0-1p0-1p0-0-0-3-0-0-0-3-0-0-3/5-5-|

E|----------------------------------------|
B|----------------------------------------|
G|----------------------------------------|
D|-----------------------------5-5-----7\-|
A|-----------------------------3-3-----5\-|
D|-8-0-0-0-7-0-0-0-1p0-1p0-x-x-3-3-x-x-5\-|

Riff 2   "You better watch your words..."
E|-------------------------------------------------|
B|-------------------------------------------------|
G|-------------------------------------------------|
D|-------------------------------------------------|
A|-------------------------------------------------|
D|-8-0-0-0-7-0-0-0-1p0-1p0-0-0-3-0-0-0-3-0-0-3/5-5-|

E|-------------------------------------------|
B|-------------------------------------------|
G|-------------------------------------------|
D|-------------------------------------------|
A|-------------------------------------------|
D|-8-0-0-0-7-0-0-0-1p0-1p0-x-x-3-3-x-x-5-5-5-|

E|-------------------------------------------------|
B|-------------------------------------------------|
G|-------------------------------------------------|
D|-------------------------------------------------|
A|-------------------------------------------------|
D|-8-0-0-0-7-0-0-0-1p0-1p0-0-0-3-0-0-0-3-0-0-3/5-5-|

E|-------------------------------------------|
B|-------------------------------------------|
G|-------------------------------------------|
D|-----------------------------5-5-----7-7-7-|
A|-----------------------------3-3-----5-5-5-|
D|-8-0-0-0-7-0-0-0-1p0-1p0-x-x-3-3-x-x-5-5-5-|

Riff 3   "This isn't a test the shit has hit the fan..."
E|-----------------------------------------------------------------|
B|-----------------------------------------------------------------|
G|-----------------------------------------------------------------|
D|-8-8-8-8-8-8-5-5-5-5-5-5-----------------------------------------|
A|-8-8-8-8-8-8-5-5-5-5-5-5-----------------------------------------|
D|-8-8-8-8-8-8-5-5-5-5-5-5-3p0-3p0-3p0-0-0-0-0-3p0-0-0-0-0-3p0-0-0-|

E|-------------------------------------------------------|
B|-------------------------------------------------------|
G|-------------------------------------------------------|
D|-8-8-8-8-8-8-5-5-5-5-5-5-------------------------7-7-7-|
A|-8-8-8-8-8-8-5-5-5-5-5-5-------------------------5-5-5-|
D|-8-8-8-8-8-8-5-5-5-5-5-5-3p0-3p0-3p0-0-0-0-0-3p0-5-5-5-|

Play Riff 3 x2   "Wasn't part of the plan, but I can make exceptions..."
Play Riff 2 x1   "Watch your temper..." (2nd half of this riff)
Play Riff 2 x1   "You better clam yourself..." (whole riff this time)
Play Riff 3 x2   "This isn't a test the shit has hit the fan..."
Play Riff 2 x1   "Watch your temper..." (2nd half of this riff)

Riff 4   "Watch your temper or you will remember my name..."
E|----------------------------------------------|
B|----------------------------------------------|
G|----------------------------------------------|
D|-0-1-0-1-------------------0-0--0-------------|
A|-0-1-0-1-------------------0-0--0-------------|
D|-0-1-0-1--0-1-3-1-0-1--0-0-0-0--0-0-0-1-3-1-0-|
   * * *                     * *  *

Play Riff 4 x4

Solo
E|---------------------------------------------------------|
B|---------------------------------------------------------|
G|-7b8r7p5-7--5-7-5--------10------12-------14b15r14p12-14-|
D|------------------7--7/8----8/10----10/12----------------|
A|---------------------------------------------------------|
D|---------------------------------------------------------|

E|------------------------------------------------------------|
B|-----------------------------------16-18-16-15-16-15~-13----|
G|----------12h14h15-15--12h14h15/17-----------------------15-|
D|-12h13h15---------------------------------------------------|
A|------------------------------------------------------------|
D|------------------------------------------------------------|

E|------------------------------------------|
B|------------------------------------------|
G|-14b15r14---------------------------------|
D|----------15-13--12h13h12\10h12p10\7h8p7~-|
A|------------------------------------------|
D|------------------------------------------|

E|---------------------------------------------------|
B|---------------------------------------------------|
G|-----7-7-8-8-8--8-8-8-10-10-10-12-12-12-14-14-15b~-|
D|-7-7-----------------------------------------------|
A|---------------------------------------------------|
D|---------------------------------------------------|

Play Riff 4 x4   "Watch your temper or you will remember my name..."
Play Riff 3 x2   "This isn't a test the shit has hit the fan..."
Play Riff 2 x1   "Watch your temper..."
Play Riff 4 x3   "...or you will remember..."
                 (3rd time ends after first set of palm mutes)

Enjoy!!
Suggest correction
Give kudos to tab author, rate the tab!
1 2 3 4 5
comments
print report bad tab
guest
You may want to rate the tab now too:
select rating
Please do not post tabs as comments. Select "correction" instead!