Oops, an error
Loading. Please wait.

That Day Tab

1,995 views 3 this week
no commentswrite comment
1 2 3 4 5
excellent!
x 4
add to favorites
launch autoscroll
font size
0
reset
how to read this tab
guitar tuner
Tab Pro tools
  • play this tab
  • loop segment
  • change instrument
  • show fretboard
  • metronome
×
Best way to learn
"That Day"
Autoscroll
slow
fast
+/-
esc
set tempo
stop
Contributor
Difficulty
Tuning
novice
C G C F A D
Nonpoint: That Day

Transcribed by: mysticguitar77

YouTube Username: MysticGuitar77

Date last modified: December 18, 2012

Tuning: Drop C (C,G,C,F,A,D)

Notes: Only tabbing what I played in my cover. Most of the 2nd guitar I have
       not learned yet.

Riff 1
D|-----------------------------------------------------------------|
A|-----------------------------------------------------------------|
F|-----------------------------------------------------------------|
C|-0-2-2-0-2-3-0-3-4-0-4-5-5-5-5-5-0-2-2-0-2-3-0-3-4-0-4-5-x-x-x-x-|
G|-0-2-2-0-2-3-0-3-4-0-4-5-5-5-5-5-0-2-2-0-2-3-0-3-4-0-4-5-x-x-x-x-|
C|-0-2-2-0-2-3-0-3-4-0-4-5-5-5-5-5-0-2-2-0-2-3-0-3-4-0-4-5-x-x-x-x-|

Riff 2
D|---------------------------------------------------------0-0-0-|
A|---------------------------------------------------------6-6-6-|
F|---------------------------------------------------------------|
C|-0-2-2-0-2-3-0-3-4-0-4-5-5-5-5-5-0-2-2-0-2-3-0-3-4-0-4-5-------|
G|-0-2-2-0-2-3-0-3-4-0-4-5-5-5-5-5-0-2-2-0-2-3-0-3-4-0-4-5-------|
C|-0-2-2-0-2-3-0-3-4-0-4-5-5-5-5-5-0-2-2-0-2-3-0-3-4-0-4-5-------|

Riff 3   "It wasn't just the words we were throwing around..."
D|---------------------------------|
A|---------------------------------|
F|---------------------------------|
C|-0-2-2-0-2-4-0-4-5-0-5-7-7-7-7-7-|
G|---------------------------------|
C|---------------------------------|

Play Riff 3 x2

Riff 4   "...and I'm still tied down from the battle before..."
D|-------------------------0-0-0---------------------------------|
A|-------------------------6-6-6---------------------------------|
F|---------------------------------------------------------------|
C|-0-2-2-0-2-3-0-3-4-0-4-5-------0-2-2-0-2-3-0-3-4-0-4-5-5-5-5-5-|
G|-0-2-2-0-2-3-0-3-4-0-4-5-------0-2-2-0-2-3-0-3-4-0-4-5-5-5-5-5-|
C|-0-2-2-0-2-3-0-3-4-0-4-5-------0-2-2-0-2-3-0-3-4-0-4-5-5-5-5-5-|

Play Riff 3 x2   "...it was a bad time to wear cheap perfume..."
Play Riff 4 x1
Play Riff 3 x2   "I gotta bring up all the things that I wanted to hear..."
Play Riff 4 x1
Play Riff 3 x3   "All I have are the memories of every word you've said..."

Riff 5   "...every word you've said..."
D|----------------------|
A|----------------------|
F|----------------------|
C|-0-1-1-0-3-1-0-1-1--0-|
G|-----------------1--0-|
C|-----------------1--0-|

Riff 6   "I will remember that day..."
D|-----------------------------------------------------------------|
A|-----------------------------------------------------------------|
F|-----------------------------------------------------------------|
C|-5-5-x-5-x-5----0-0-x-0-x-0----1-1-x-1-x-1----3-3-x-3-x-3--x-x-3-|
G|-5-5-x-5-x-5----0-0-x-0-x-0----1-1-x-1-x-1----3-3-x-3-x-3--x-x-3-|
C|-5-5-x-5-x-5----0-0-x-0-x-0----1-1-x-1-x-1----3-3-x-3-x-3--x-x-3-|

D|------------------------------------------------------------------|
A|------------------------------------------------------------------|
F|------------------------------------------------------------------|
C|-5-5-x-5-x-5----0-0-x-0-x-0----1-1-x-1-x-1----3-3-x-3-x-1-1-x-1-x-|
G|-5-5-x-5-x-5----0-0-x-0-x-0----1-1-x-1-x-1----3-3-x-3-x-1-1-x-1-x-|
C|-5-5-x-5-x-5----0-0-x-0-x-0----1-1-x-1-x-1----3-3-x-3-x-1-1-x-1-x-|

Play Riff 2 x1
Play Riff 3 x2    "Another senseless situation..."
Play Riff 4 x1
Play Riff 3 x2
Play Riff 4 x1
Play Riff 3 x2
Play Riff 4 x1
Play Riff 3 x3
Play Riff 5 x1    (play without ending chords)
Play Riff 6 x1    "I remember that day..."

Riff 7
D|---------------------------------|
A|---------------------------------|
F|---------------------------------|
C|-3-5-5-3-5-5-3/5-5p0-5h6-6-6-6-6-|
G|-3-5-5-3-5-5-3/5-5p0-5h6-6-6-6-6-|
C|-3-5-5-3-5-5-3/5-5p0-5h6-6-6-6-6-|

Play Riff 7 x4
Play Riff 2 x3 (first time w/o high notes, 2nd time with, 3rd time w/o)

Riff 2 alteration    "I have a problem now!!"
D|---------------------------------|
A|---------------------------------|
F|---------------------------------|
C|-0-2-2-0-2-3-0-3-4-0-4-5-5-5-5-5-|
G|-0-2-2-0-2-3-0-3-4-0-4-5-5-5-5-5-|
C|-0-2-2-0-2-3-0-3-4-0-4-5-5-5-5-5-|

D|-----------------------------------------------------------------|
A|-----------------------------------------------------------------|
F|-----------------------------------------------------------------|
C|-----------------------------------------------------------------|
G|-----------------------------------------------------------------|
C|-1-1-1-1-1-1-1-1-1-1-1-1-1-1-1-1-3-3-3-3-3-3-3-3-3-3-3-3-3-3-3-3-|

Play Riff 6 x2   "I remember that day..."
                 (begins with second chord of riff instead)
Play Riff 7 x3   "Then everything changed!!"

Ending
D|--------------------|
A|--------------------|
F|--------------------|
C|-5-5--5-5--5-5--5-5-|
G|-5-5--5-5--5-5--5-5-|
C|-5-5--5-5--5-5--5-5-|

Enjoy!!!
comments
print report bad tab
I want to post or [tab]
guest
You may want to rate the tab now too:
select rating
Please do not post tabs as comments. Select "correction" instead!