Oops, an error
Loading. Please wait.

What A Day Bass Tab

version 3
version 3

Whole song

Interactive

274 views 1 this week
no commentswrite comment
1 2 3 4 5
please rate
add to favorites
launch autoscroll
font size
0
reset
guitar tuner
Autoscroll
slow
fast
+/-
esc
set tempo
stop
Help us to improve Ultimate-Guitar.com Take our survey!
×
Author
Tuning: C G C F

1st Verse:
F|-----------------------------------------|
C|-----12-------------------12----12-------|
G|--------11-10-----10-11-----------11-10--|
C|--0-------------12------------0----------|

Chorus:
F|------------------------------------------------------|
C|------------------------------------------------------|
G|------------------------------------------------------|
C|-8-7-0-0--0--8h10-10-8-8h12-12--8-7-0-0--0-3h5-5-5-3--|

2nd Verse:
F|--------------------------------------------|
C|-----12-------10-----h10-12-----12----------|
G|--------11-------h11---------------11-10----|
C|--0--------------------------0--------------|

Pre-Chorus 2nd Verse:
F|--------------------------------------------|
C|-----12-------------------------------------|
G|---------11---------------------------------|
C|--0-----------------------------------------|

Post Chorus:                  Second Time You Play:
F|-----------------------|------------------------|
C|-----------------------|------------------------|
G|-----------------------|------------------------|
C|-6-5-6/10----6-6-6-6-55|6-6-6-6-55--6-6-6-6-55--|

Bridge- play post chorus part, but then play:
F|----------------------------------------------------------------------------------|
C|----------------------------------------------------------------------------------|
G|----------------------------------------------------------------------------------|
C|-6-6-6-6-55--6-6-6-6-55--6-6-6-6-55--6-6-6-6-55--6-6-6-6-55--8-8-8-8/10-10-10-10--|

Last Chorus:
F|---------------------|
C|---------------------|
G|---------------------|
C|-8-7-0-0--0--6--6-5--|

Suggest correction
What's this?
You can suggest a correction to this tab. Community and Mods will review your correction and vote to approve or reject it.
comments
We did not receive enough feedback on this tab! Please rate:
print report bad tab
1 2 3 4 5
guest
You may want to rate the tab now too:
select rating
Please do not post tabs as comments. Select "correction" instead!