Oops, an error
Loading. Please wait.

Booster tab

by noodles
462 views 1 this week
no commentswrite comment
1 2 3 4 5
3 more votes to show rating
add to favorites
×
Save as Personal and add changes to this tab that will be seen only by you. Learn more ›
×
You can save this tab as Personal to edit and correct it or add notes. All changes will be seen only by you. Learn more »
launch autoscroll
font size
0
reset
how to read this tab
guitar tuner
edit
Autoscroll
slow
fast
+/-
esc
set tempo
stop
booster


noodles


TRANSCRIBED BY RUDY GUZMAN


guzman_84@hotmail.com

e:--------------------0-|
B:--------------------0-|
G:-2-1-2-1-2--2-1-2-1-2-|
D:-2-2-2-2-2--2-2-2-2-2-|
A:---------0----------0-|
E:----------------------|


e:---------------------------------------------4-4-4-4-4-4-4-4-4-4----------------------|
B:-5--5--5-5-5-5-5-5-5--5--5--5-5-5-5-5-5-5-5--6-6-6-6-6-6-6-6-6-6--2-2-2-2-2-2-2-2-2-2-|
G:-6--6--6-6-6-6-6-6-6--6--6--6-6-6-6-6-6-6-6--6-6-6-6-6-6-6-6-6-6--2-2-2-2-2-2-2-2-2-2-|
D:-7--7--7-7-7-7-7-7-7--7--7--7-7-7-7-7-7-7-7--6-6-6-6-6-6-6-6-6-6--4-4-4-4-4-4-4-4-4-4-|
A:-7--7--7-7-7-7-7-7-7--7--7--7-7-7-7-7-7-7-7-----------------------4-4-4-4-4-4-4-4-4-4-|
E:--------------------------------------------------------------------------------------|

e:-2-2-2-2-2-2-2-2-2-2-2-2-2-2-2-2-|
B:-4-4-4-4-4-4-4-4-4-4-4-4-4-4-4-4-|
G:-4-4-4-4-4-4-4-4-4-4-4-4-4-4-4-4-|
D:-4-4-4-4-4-4-4-4-4-4-4-4-4-4-4-4-|
A:---------------------------------|
E:---------------------------------|

e:---------------------------------------------4-4-4-4-4-4-4-4-4-4----------------------|
B:-5--5--5-5-5-5-5-5-5--5--5--5-5-5-5-5-5-5-5--6-6-6-6-6-6-6-6-6-6--2-2-2-2-2-2-2-2-2-2-|
G:-6--6--6-6-6-6-6-6-6--6--6--6-6-6-6-6-6-6-6--6-6-6-6-6-6-6-6-6-6--2-2-2-2-2-2-2-2-2-2-|
D:-7--7--7-7-7-7-7-7-7--7--7--7-7-7-7-7-7-7-7--6-6-6-6-6-6-6-6-6-6--4-4-4-4-4-4-4-4-4-4-|
A:-7--7--7-7-7-7-7-7-7--7--7--7-7-7-7-7-7-7-7-----------------------4-4-4-4-4-4-4-4-4-4-|
E:--------------------------------------------------------------------------------------|

e:-2-2-2-2-2-2-2-2-2-2-2-2-2-2-2-2-|
B:-4-4-4-4-4-4-4-4-4-4-4-4-4-4-4-4-|
G:-4-4-4-4-4-4-4-4-4-4-4-4-4-4-4-4-|
D:-4-4-4-4-4-4-4-4-4-4-4-4-4-4-4-4-|
A:---------------------------------|
E:---------------------------------|

e:----------------------5-----------------------5-|
B:-5-5-5-5-5-5-5--5-5-5-5--5-5-5-5-5-5-5--5-5-5-5-|
G:-6-7p6-6-7-6-6--6-7-6-6--6-7p6-6-7-6-6--6-7p6-6-|
D:-7-7-7---7-7-7--7-7-7-7--7-7-7---7-7-7--7-7-7-7-|
A:-0-0-0---0-0-0--0-0-0----0-0-0---0-0-0--0-0-0---|
E:------------------------------------------------|

e:---------------------------------------------4-4-4-4-4-4-4-4-4-4----------------------|
B:-5--5--5-5-5-5-5-5-5--5--5--5-5-5-5-5-5-5-5--6-6-6-6-6-6-6-6-6-6--2-2-2-2-2-2-2-2-2-2-|
G:-6--6--6-6-6-6-6-6-6--6--6--6-6-6-6-6-6-6-6--6-6-6-6-6-6-6-6-6-6--2-2-2-2-2-2-2-2-2-2-|
D:-7--7--7-7-7-7-7-7-7--7--7--7-7-7-7-7-7-7-7--6-6-6-6-6-6-6-6-6-6--4-4-4-4-4-4-4-4-4-4-|
A:-7--7--7-7-7-7-7-7-7--7--7--7-7-7-7-7-7-7-7-----------------------4-4-4-4-4-4-4-4-4-4-|
E:--------------------------------------------------------------------------------------|

e:-2-2-2-2-2-2-2-2-2-2-2-2-2-2-2-2-|
B:-4-4-4-4-4-4-4-4-4-4-4-4-4-4-4-4-|
G:-4-4-4-4-4-4-4-4-4-4-4-4-4-4-4-4-|
D:-4-4-4-4-4-4-4-4-4-4-4-4-4-4-4-4-|
A:---------------------------------|
E:---------------------------------|

e:---------------------------------------------4-4-4-4-4-4-4-4-4-4----------------------|
B:-5--5--5-5-5-5-5-5-5--5--5--5-5-5-5-5-5-5-5--6-6-6-6-6-6-6-6-6-6--2-2-2-2-2-2-2-2-2-2-|
G:-6--6--6-6-6-6-6-6-6--6--6--6-6-6-6-6-6-6-6--6-6-6-6-6-6-6-6-6-6--2-2-2-2-2-2-2-2-2-2-|
D:-7--7--7-7-7-7-7-7-7--7--7--7-7-7-7-7-7-7-7--6-6-6-6-6-6-6-6-6-6--4-4-4-4-4-4-4-4-4-4-|
A:-7--7--7-7-7-7-7-7-7--7--7--7-7-7-7-7-7-7-7-----------------------4-4-4-4-4-4-4-4-4-4-|
E:--------------------------------------------------------------------------------------|

e:-2-2-2-2-2-2-2-2-2-2-2-2-2-2-2-2-|
B:-4-4-4-4-4-4-4-4-4-4-4-4-4-4-4-4-|
G:-4-4-4-4-4-4-4-4-4-4-4-4-4-4-4-4-|
D:-4-4-4-4-4-4-4-4-4-4-4-4-4-4-4-4-|
A:---------------------------------|
E:---------------------------------|

e:----------------------5-----------------------5-|
B:-5-5-5-5-5-5-5--5-5-5-5--5-5-5-5-5-5-5--5-5-5-5-|
G:-6-7p6-6-7-6-6--6-7-6-6--6-7p6-6-7-6-6--6-7p6-6-|
D:-7-7-7---7-7-7--7-7-7-7--7-7-7---7-7-7--7-7-7-7-|
A:-0-0-0---0-0-0--0-0-0----0-0-0---0-0-0--0-0-0---|
E:------------------------------------------------|

e:-5-5-5-5-5-5-5-----------------4-4-4-4-4-4-4------------------|
B:-7-7-7-7-7-7-7--5-5-5-5-5-5-5--5-5-5-5-5-5-5--5-5-5-5-5-5-5-5-|
G:-7-7-7-7-7-7-7--6-6-6-6-6-6-6--6-6-6-6-6-6-6--6-6-6-6-6-6-6-6-|
D:-7-7-7-7-7-7-7--7-7-7-7-7-7-7--6-6-6-6-6-6-6--7-7-7-7-7-7-7-7-|
A:----------------7-7-7-7-7-7-7-----------------7-7-7-7-7-7-7-7-|
E:--------------------------------------------------------------|

e:-5-5-5-5-5-5-5-------------------------------------------------------------------------|
B:-7-7-7-7-7-7-7--5-5-5-5-5-5-5--7-7-7-7-7-7-7-7-7-7-7--10-10-10-10-10-10-10-10-10-10-10-|
G:-7-7-7-7-7-7-7--6-6-6-6-6-6-6--8-8-8-8-8-8-8-8-8-8-8--11-11-11-11-11-11-11-11-11-11-11-|
D:-7-7-7-7-7-7-7--7-7-7-7-7-7-7--9-9-9-9-9-9-9-9-9-9-9--12-12-12-12-12-12-12-12-12-12-12-|
A:----------------7-7-7-7-7-7-7--9-9-9-9-9-9-9-9-9-9-9--12-12-12-12-12-12-12-12-12-12-12-|
E:---------------------------------------------------------------------------------------|


   gt2 *under the solo*
e:---------------------------------------------4-4-4-4-4-4-4-4-4-4----------------------|
B:-5--5--5-5-5-5-5-5-5--5--5--5-5-5-5-5-5-5-5--6-6-6-6-6-6-6-6-6-6--2-2-2-2-2-2-2-2-2-2-|
G:-6--6--6-6-6-6-6-6-6--6--6--6-6-6-6-6-6-6-6--6-6-6-6-6-6-6-6-6-6--2-2-2-2-2-2-2-2-2-2-|
D:-7--7--7-7-7-7-7-7-7--7--7--7-7-7-7-7-7-7-7--6-6-6-6-6-6-6-6-6-6--4-4-4-4-4-4-4-4-4-4-|
A:-7--7--7-7-7-7-7-7-7--7--7--7-7-7-7-7-7-7-7-----------------------4-4-4-4-4-4-4-4-4-4-|
E:--------------------------------------------------------------------------------------|

e:-2-2-2-2-2-2-2-2-2-2-2-2-2-2-2-2-|
B:-4-4-4-4-4-4-4-4-4-4-4-4-4-4-4-4-|
G:-4-4-4-4-4-4-4-4-4-4-4-4-4-4-4-4-|
D:-4-4-4-4-4-4-4-4-4-4-4-4-4-4-4-4-|
A:---------------------------------|
E:---------------------------------|

   solo
e:----------------------9--9--9-------------------9-9-9-----------------------------------|
B:-10-10--12-10--12-10--10-10-10--9-9--10-9-10-9--9-9-9-----------------------------------|
G:-9--9---9--9---9--9---9---------9-9--9--9-9--9--9------9/7-7-7--6-6-6-6-6--9-9-9--7-7-6-|
D:----------------------------------------------------------------------------------------|
A:----------------------------------------------------------------------------------------|
E:----------------------------------------------------------------------------------------|

e:------------------------------7/9--9---9-\--------------6/8-8--8--------------14-14-|
B:------------------------------8/10-10--10\--------------7/9-9--9---19--17--14-14-14-|
G:-----------------6-6-------------------------6-7-7-7-6-------------18--16--14-------|
D:-7-9--(9)--9-\7-------7/9-7---------------------------------------------------------|
A:------------------------------------------------------------------------------------|
E:------------------------------------------------------------------------------------|

e:-12--9---11--11-11/13-13--16----|
B:-12--10--12--12-12/14-14-----14-|
G:--------------------------------|
D:--------------------------------|
A:--------------------------------|
E:--------------------------------|

e:-5-5-5-5-5-5-5-----------------4-4-4-4-4-4-4------------------|
B:-7-7-7-7-7-7-7--5-5-5-5-5-5-5--5-5-5-5-5-5-5--5-5-5-5-5-5-5-5-|
G:-7-7-7-7-7-7-7--6-6-6-6-6-6-6--6-6-6-6-6-6-6--6-6-6-6-6-6-6-6-|
D:-7-7-7-7-7-7-7--7-7-7-7-7-7-7--6-6-6-6-6-6-6--7-7-7-7-7-7-7-7-|
A:----------------7-7-7-7-7-7-7-----------------7-7-7-7-7-7-7-7-|
E:--------------------------------------------------------------|

e:-5-5-5-5-5-5-5-------------------------------------------------------------------------|
B:-7-7-7-7-7-7-7--5-5-5-5-5-5-5----------------------------------------------------------|
G:-7-7-7-7-7-7-7--6-6-6-6-6-6-6--8-9-8-9-8-9-8-9-8-9-8--11-12-11-12-11-12-11-12-11-12-11-|
D:-7-7-7-7-7-7-7--7-7-7-7-7-7-7--9-9-9-9-9-9-9-9-9-9-9--12-12-12-12-12-12-12-12-12-12-12-|
A:----------------7-7-7-7-7-7-7--0-0-0-0-0-0-0-0-0-0-0--0--0--0--0--0--0--0--0--0--0--0--|
E:---------------------------------------------------------------------------------------|


e:---------------------------------------------4-4-4-4-4-4-4-4-4-4----------------------|
B:-5--5--5-5-5-5-5-5-5--5--5--5-5-5-5-5-5-5-5--6-6-6-6-6-6-6-6-6-6--2-2-2-2-2-2-2-2-2-2-|
G:-6--6--6-6-6-6-6-6-6--6--6--6-6-6-6-6-6-6-6--6-6-6-6-6-6-6-6-6-6--2-2-2-2-2-2-2-2-2-2-|
D:-7--7--7-7-7-7-7-7-7--7--7--7-7-7-7-7-7-7-7--6-6-6-6-6-6-6-6-6-6--4-4-4-4-4-4-4-4-4-4-|
A:-7--7--7-7-7-7-7-7-7--7--7--7-7-7-7-7-7-7-7-----------------------4-4-4-4-4-4-4-4-4-4-|
E:--------------------------------------------------------------------------------------|

e:-2-2-2-2-2-2-2-2-2-2-2-2-2-2-2-2-|
B:-4-4-4-4-4-4-4-4-4-4-4-4-4-4-4-4-|
G:-4-4-4-4-4-4-4-4-4-4-4-4-4-4-4-4-|
D:-4-4-4-4-4-4-4-4-4-4-4-4-4-4-4-4-|
A:---------------------------------|
E:---------------------------------|

e:---------------------------------------------4-4-4-4-4-4-4-4-4-4----------------------|
B:-5--5--5-5-5-5-5-5-5--5--5--5-5-5-5-5-5-5-5--6-6-6-6-6-6-6-6-6-6--2-2-2-2-2-2-2-2-2-2-|
G:-6--6--6-6-6-6-6-6-6--6--6--6-6-6-6-6-6-6-6--6-6-6-6-6-6-6-6-6-6--2-2-2-2-2-2-2-2-2-2-|
D:-7--7--7-7-7-7-7-7-7--7--7--7-7-7-7-7-7-7-7--6-6-6-6-6-6-6-6-6-6--4-4-4-4-4-4-4-4-4-4-|
A:-7--7--7-7-7-7-7-7-7--7--7--7-7-7-7-7-7-7-7-----------------------4-4-4-4-4-4-4-4-4-4-|
E:--------------------------------------------------------------------------------------|

e:-2-2-2-2-2-2-2-2-2-2-2-2-2-2-2-2-|
B:-4-4-4-4-4-4-4-4-4-4-4-4-4-4-4-4-|
G:-4-4-4-4-4-4-4-4-4-4-4-4-4-4-4-4-|
D:-4-4-4-4-4-4-4-4-4-4-4-4-4-4-4-4-|
A:---------------------------------|
E:---------------------------------|

e:----------------------5-----------------------5-|
B:-5-5-5-5-5-5-5--5-5-5-5--5-5-5-5-5-5-5--5-5-5-5-|
G:-6-7p6-6-7-6-6--6-7-6-6--6-7p6-6-7-6-6--6-7p6-6-|
D:-7-7-7---7-7-7--7-7-7-7--7-7-7---7-7-7--7-7-7-7-|
A:-0-0-0---0-0-0--0-0-0----0-0-0---0-0-0--0-0-0---|
E:------------------------------------------------|

e:---------------------|
B:-----4------0------4-|
G:---2------2------2---|
D:-4------4------4-----|
A:---------------------|
E:---------------------|

e:----------------------------------------------------------|
B:-0-0-0-0-0-0-0-0-0-0------------4--------------4--------4-|
G:-1-1-1-1-1-1-1-1-1-1-----2--0/4--------2--0/4--------2----|
D:-2-2-2-2-2-2-2-2-2-2--/4------------/4------------/4------|
A:-2-2-2-2-2-2-2-2-2-2--------------------------------------|
E:-0-0-0-0-0-0-0-0-0-0--------------------------------------|

e:--------------------------------------------------|
B:-----------------10-10-10-10-10-10-10-10-10-10-10-|
G:-8-8-8-8-8-8-8---11-11-11-11-11-11-11-11-11-11-11-|
D:-9-9-9-9-9-9-9---12-12-12-12-12-12-12-12-12-12-12-|
A:-9-9-9-9-9-9-9---12-12-12-12-12-12-12-12-12-12-12-|
E:-7-7-7-7-7-7-7------------------------------------|

e:---------------------------------------------4-4-4-4-4-4-4-4-4-4----------------------|
B:-5--5--5-5-5-5-5-5-5--5--5--5-5-5-5-5-5-5-5--6-6-6-6-6-6-6-6-6-6--2-2-2-2-2-2-2-2-2-2-|
G:-6--6--6-6-6-6-6-6-6--6--6--6-6-6-6-6-6-6-6--6-6-6-6-6-6-6-6-6-6--2-2-2-2-2-2-2-2-2-2-|
D:-7--7--7-7-7-7-7-7-7--7--7--7-7-7-7-7-7-7-7--6-6-6-6-6-6-6-6-6-6--4-4-4-4-4-4-4-4-4-4-|
A:-7--7--7-7-7-7-7-7-7--7--7--7-7-7-7-7-7-7-7-----------------------4-4-4-4-4-4-4-4-4-4-|
E:--------------------------------------------------------------------------------------|

e:-2-2-2-2-2-2-2-2-2-2-2-2-2-2-2-2-|
B:-4-4-4-4-4-4-4-4-4-4-4-4-4-4-4-4-|
G:-4-4-4-4-4-4-4-4-4-4-4-4-4-4-4-4-|
D:-4-4-4-4-4-4-4-4-4-4-4-4-4-4-4-4-|
A:---------------------------------|
E:---------------------------------|

e:---------------------------------------------4-4-4-4-4-4-4-4-4-4----------------------|
B:-5--5--5-5-5-5-5-5-5--5--5--5-5-5-5-5-5-5-5--6-6-6-6-6-6-6-6-6-6--2-2-2-2-2-2-2-2-2-2-|
G:-6--6--6-6-6-6-6-6-6--6--6--6-6-6-6-6-6-6-6--6-6-6-6-6-6-6-6-6-6--2-2-2-2-2-2-2-2-2-2-|
D:-7--7--7-7-7-7-7-7-7--7--7--7-7-7-7-7-7-7-7--6-6-6-6-6-6-6-6-6-6--4-4-4-4-4-4-4-4-4-4-|
A:-7--7--7-7-7-7-7-7-7--7--7--7-7-7-7-7-7-7-7-----------------------4-4-4-4-4-4-4-4-4-4-|
E:--------------------------------------------------------------------------------------|

e:-2-2-2-2-2-2-2-2-2-2-2-2-2-2-2-2-|
B:-4-4-4-4-4-4-4-4-4-4-4-4-4-4-4-4-|
G:-4-4-4-4-4-4-4-4-4-4-4-4-4-4-4-4-|
D:-4-4-4-4-4-4-4-4-4-4-4-4-4-4-4-4-|
A:---------------------------------|
E:---------------------------------|

e:----------------------5-5-5-5-5-----------------------5-5-5-5-5-|
B:-5-5-5-5-5-5-5--5-5-5-5-5-5-5-5--5-5-5-5-5-5-5--5-5-5-5-5-5-5-5-|
G:-6-7p6-6-7-6-6--6-7-6-6-6-6-6-6--6-7p6-6-7-6-6--6-7p6-6-6-6-6-6-|
D:-7-7-7---7-7-7--7-7-7-7-7-7-7-7--7-7-7---7-7-7--7-7-7-7-7-7-7-7-|
A:-0-0-0---0-0-0--0-0-0-0----------0-0-0---0-0-0--0-0-0-0---------|
E:----------------------------------------------------------------|

e:----------------------5-5-5-5-5-----------------------5-5-5-5-5-|
B:-5-5-5-5-5-5-5--5-5-5-5-5-5-5-5--5-5-5-5-5-5-5--5-5-5-5-5-5-5-5-|
G:-6-7p6-6-7-6-6--6-7-6-6-6-6-6-6--6-7p6-6-7-6-6--6-7p6-6-6-6-6-6-|
D:-7-7-7---7-7-7--7-7-7-7-7-7-7-7--7-7-7---7-7-7--7-7-7-7-7-7-7-7-|
A:-0-0-0---0-0-0--0-0-0-0----------0-0-0---0-0-0--0-0-0-0---------|
E:----------------------------------------------------------------|


websites:

http://www.myspace.com/noodlesvelvet                 myspace

http://www.facebook.com/pages/noodles/346169903325   facebook

http://noodles.velvet.jp/index_e.html                official website

hillo son mex

9/11/10

            
            
Suggest correction
Creating personal tab
Creating personal tab
You can edit any tab online and save it as your Personal.

You can edit, replace or remove any tab part or add personal notes – all changes will be seen only by you.

Personal tabs can be accessed anytime from any device, even offline.
Learn more »
Give kudos to tab author, rate the tab!
1 2 3 4 5
comments
print report bad tab
guest
You may want to rate the tab now too:
select rating
Wanna post a correction for this tab? Suggest correction