Oops, an error
Loading. Please wait.

Leron-Leron Sinta Tab

19,652 views 93 this week
no commentswrite comment
1 2 3 4 5
please rate
add to favorites
launch autoscroll
font size
0
reset
how to read this tab
guitar tuner
Autoscroll
slow
fast
+/-
esc
set tempo
stop
Help us to improve Ultimate-Guitar.com Take our survey!
×
Author
Difficulty
intermediate
e|-----------------------------------------0---------------------------------|
B|---3---3----1---0---1----3----------3--------------3-----0-----3-----------|
G|---------------------------0-----------------------------------------------|
D|----------------0---------------0------------------------------------------|
A|---------------------------------------------------------2-----------------|
E|-------3-----------------3---------------3---------------------------------|



e|------------------------------------------------------0-----------------------|
B|--1--------1-----1---0-----0-----1-----------3----3-------3-----1-------------|
G|-----2-----------------2------------2-----------------------------------------|
D|--0--------------0--------------0----------------0----------------------------|
A|---------0-------------0----------------0-------------------------------------|
E|---------------------------------------------------------0--------------------|



e|---------------------------------------------------------------------------|
B|---0-----------3---3----1--0--1-----3-----------0----0-----1------3--------|
G|------0---------------------------------0----------------------------------|
D|-----------0---------------0---------------0-------------------------------|
A|-----------------------------------------------------------0------2--------|
E|---3---------------3----------------3----------------3---------------------|



e|---0----------0-----0-----3----2----0------------------3----2---0---2---3-----|
B|------------------------------------------3-----------------------------0-----|
G|-------0---------------------------------------0------------------------0-----|
D|----------2--------------------------------------------0----------------------|
A|---3----------------3----------0-------------------2------------0-------------|
E|------------------------------------------3-----------------------------3-----|
Suggest correction
Give kudos to tab author, rate the tab!
1 2 3 4 5
comments
print report bad tab
guest
You may want to rate the tab now too:
select rating
Please do not post tabs as comments. Select "correction" instead!