Oops, an error
Loading. Please wait.
We have Chord Pro version of Come Away With Me.
It's the closest thing you can get to the original song and it has interactive parts. Check out the tab »
×
18,251 views 6 this week
1 commentread comment
1 2 3 4 5
1 last vote to show rating
add to favorites
×
Save as Personal and add changes to this tab that will be seen only by you. Learn more ›
×
You can save this tab as Personal to edit and correct it or add notes. All changes will be seen only by you. Learn more »
launch autoscroll
font size
0
reset
how to read this tab
guitar tuner
edit
Autoscroll
slow
fast
+/-
esc
set tempo
stop
Author
Difficulty
I was looking at the other tab for her solo and realized it wasnt even close, so not
if i have a different version or whatever, but i just thought i would tab the version of
song that i have. it's me first tab but please leave me any corrections or comments. 
near the end i might have tabbed some piano on accident, it gets a little hard to tell to
the difference

Key:
S=Slide
B=Bend
R=Release Bend
H=Hammer On
*=Just barely bend this note enough to hear it


Solo Starts at 1:35

|---------------5---------------------------------------------|
|-----------------8-5-----------------------------------------|
|---4-5-7-7s9----------5-7-5-7s9--------5---------------------|
|---------------------------------5-5h7---7-------------------|
|-------------------------------------------------------------|
|-------------------------------------------------------------|


1:47
|------8-----------------------------------------7-8-10--12-10---|
|--10b---r10-8------------------------------------------------10-|
|--------------7s9---7---9*--7s5--5h7-----4----------------------|
|------------------9---9---9----------7-----7-5------------------|
|----------------------------------------------------------------|
|----------------------------------------------------------------|

                                 Rake this chord
2:03                                   \/
|------13--------17-----12---------12--12----13-15----------------------|
|--b15----r15-13------13--15-13--------13--13-----15-13------13---------|
|------------------------------14------14---------------14-12--14-12-14-|
|-----------------------------------------------------------------------|
|-----------------------------------------------------------------------|
|-----------------------------------------------------------------------|


2:16
|----------------------------------------------------|
|----------------------------------------------------|
|--5-7-5-5h7-5-5-------------------------------------|
|----------------------------------------------------|
|----------------------------------------------------|
|----------------------------------------------------|

Good luck and hope this helped.

            
            
Suggest correction
Creating personal tab
Creating personal tab
You can edit any tab online and save it as your Personal.

You can edit, replace or remove any tab part or add personal notes – all changes will be seen only by you.

Personal tabs can be accessed anytime from any device, even offline.
Learn more »
Give kudos to tab author, rate the tab!
1 2 3 4 5
comments
print report bad tab
1 comment total.
0 reply
tordajav 2,836 Mar 18, 2008 10:36 AM

Sorry dude, I can see this have connection with "Come Away With Me" but this is not an original version. If you like to see, I just tabbed original solo... I just dont know what version you have so I cant rate this tab.

guest
You may want to rate the tab now too:
select rating
Wanna post a correction for this tab? Suggest correction