Oops, an error
Loading. Please wait.
We have Chord Pro version of Dont Know Why.
It's the closest thing you can get to the original song and it has interactive parts. Check out the tab »
×
170,828 views 96 this week
8 commentsread comments
1 2 3 4 5
x 14
add to favorites
launch autoscroll
font size
0
reset
how to read this tab
guitar tuner
Autoscroll
slow
fast
+/-
esc
set tempo
stop
Author
Norah Jones - Don't Know Why

tabbed by Sean Sullivan (themindsnexus@hotmail.com)

e|-------6-----------6-----|-------------------------|------------------------|
B|--6-------9-----------8--|-------8--7--------7--6--|-------6--5-------5-----|
G|--7----------------7--7--|----------5--5--7-----3--|----------3-------------|
D|--8-------------6-----8--|----------------------3--|------------------------|
A|----------------------6--|----6-----5--------------|----------3----3-----3--|
E|--6----------6-----------|----------------------3--|----3-------------------|

e|-----------1----3------||--------6-----------6-----|-------------------------|
B|--------4--4----4------||---6-------9-----------8--|-------8--7--------7--6--|
G|-----3--3--3----3------||*--7----------------7--7--|----------5--5--7-----3--|
D|--3--3--3--3----3------||*--8-------------6-----8--|----------------------3--|
A|-----------------------||-----------------------6--|----6-----5--------------|
E|--1--1--1--1----1------||---6----------6-----------|----------------------3--|

e|------------------------|--------------------------|-------6-----------6-----|
B|-------6--5-------5-----|-----4--4--3-----------3--|--6-------9-----------8--|
G|----------3-------------|-----3--3--------3--3--3--|--7----------------7--7--|
D|------------------------|--3--3-----3--3--------3--|--8-------------6-----8--|
A|----------3----3-----3--|-----------1--1-----1-----|----------------------6--|
E|----3-------------------|--1--1--1-----------------|--6----------6-----------|

e|-------------------------|------------------------|--------------------------|
B|-------8--7--------7--6--|-------6--5-------5-----|-----4--4--3--------------|
G|----------5--5--7-----3--|----------3-------------|-----3--3--------3--3-----|
D|----------------------3--|------------------------|--3--3-----3--3-----------|
A|----6-----5--------------|----------3----3-----3--|-----------1--1-----1--0--|
E|----------------------3--|----3-------------------|--1--1--1-----------------|

e|-------------------------|--------------------------|-------------------------|
B|--6-----6--5-------5-----|-----4--4--3--------------|-----------6----3--------|
G|--3--------3-------------|-----3--3--------3--3-----|--------3--3----3-----3--|
D|--3----------------------|--3--3-----3--3-----------|-----3-----3----3-----3--|
A|-----------3----3-----3--|-----------1--1-----1--0--|-------------------5-----|
E|--3--3-------------------|--1--1--1-----------------|--3-------------------3--|

e|-------------------------|-----------1------------|----------------------|
B|-----------5-------5--4--|-----------1----4----1--|----------------------|
G|--------3--3----3--------|--------2--2------------|----2-----------------|
D|-----5-----5-------------|-----1------------------|----1----1------------|
A|--3----------------------|------------------------|----3----3----3----0--|
E|-------------------------|--1---------------------|----------------------|

e|-------------------------|-------------------------|--------------------------|
B|-----------6----3--------|-----------5-------5--4--|--------------------------|
G|--------3--3----3-----3--|--------3--3----3--------|--------10--8-------8--7--|
D|-----3-----3----3-----3--|-----5-----5-------------|-----7--7---7-------7--7--|
A|-------------------5-----|--3----------------------|--8---------8----8-----8--|
E|--3-------------------3--|-------------------------|--------------------------|

e|------------------------||
B|------------------------||
G|-------7--5-------5----*||
D|-------7--7-------7----*||
A|----8-----8----8--8-----||
E|------------------------||
Suggest correction
comments
print report bad tab
8 comments total. Showing first comments.
0 reply
3lsa-da-freak 41 Sep 21, 2007 09:49 AM

It would help if you wrote down the chords too....

+5 reply
voodoochild23 30 Nov 22, 2009 04:02 PM

--3--
--4--
--3--
--3--
-----
--1--

Have you tried playing that chord?? Its ridiculous

0 reply
DaveBF 113 Mar 07, 2010 03:55 PM

Barre the third fret and pinky the fourth

guest
You may want to rate the tab now too:
select rating
Wanna post a correction for this tab? Suggest correction