Oops, an error
Loading. Please wait.

Lonestar Chords

version 1
version 1

Whole song

51,242 views 84 this week
2 commentsread comments
1 2 3 4 5
accurate
x 7
add to favorites
launch autoscroll
font size
0
reset
transpose
0
reset
simplify chords
- display chords -
guitar tuner
Tab Pro tools
  • play this tab
  • loop segment
  • change instrument
  • show fretboard
  • metronome
Autoscroll
slow
fast
+/-
esc
set tempo
stop
First Verse:
C/G
Lonestar

F                  C/G
Where are you out tonight?

G            Em 7           Am/A    Am/G   Am/F#
This feeling I'm trying to fight...

G             Em 7           Am/A  Am/G Am/F#
It's dark & I think that I would give anything

C            G           C/G    (walk up**)
For you to shine down on me....


Second Verse:

How far
you are I just don't know
The distance I'm willing to go
I pick up a stone that I cast to the sky
Hoping for some kind on sign...

repeat 1st verse

Chords:
--------------------------3---2------------------------------------|
--1---3---1----1----1-----1---1------------1---------------1-------|
----------2----2----2-----2---2---------------------------0--------|
--2---2---2----2----2-----2---2------------2-------------2---------|
--3---2---0----0---------------------------3-----0--2--3-----------|
--3------------3----2----------------------3--3--------------3-----|
 C/G, Em7,Am/A,Am/G,Am/F,Am/G,Am/F         Walk up ***to C/G

note: fingerpick the top two notes of C/G for country sound and A and D strings on F to get correct feeling

Enjoy!
comments
print report bad tab
2 comments total.
0 reply
rob_mannie wrote on August 21 2007, 02:17 pm

the last C (before you) is a F

0 reply
rornato wrote on September 12 2013, 05:22 pm

First Verse:
C/G
Lonestar

F C/G
Where are you out tonight?

G Em 7 Am/A Am/G Am/F#
This feeling I'm trying to fight...

G Em 7 Am/A Am/G Am/F#
It's dark & I think that I would give anything

F G C/G (walk up**)
For you to shine down on me....

Second Verse:

How far
you are I just don't know
The distance I'm willing to go
I pick up a stone that I cast to the sky
Hoping for some kind on sign...

repeat 1st verse

Chords:
--------------------------3---2------------------------------------|
--1---3---1----1----1-----1---1------------1---------------1-------|
----------2----2----2-----2---2---------------------------0--------|
--2---2---2----2----2-----2---2------------2-------------2---------|
--3---2---0----0---------------------------3-----0--2--3-----------|
--3------------3----2----------------------3--3--------------3-----|
C/G, Em7,Am/A,Am/G,Am/F,Am/G,Am/F Walk up ***to C/G

note: fingerpick the top two notes of C/G for country sound and A and D strings on F to get correct feeling

Enjoy!

I want to post or [tab]
guest
You may want to rate the tab now too:
select rating
Please do not post tabs as comments. Select "correction" instead!