Oops, an error
Loading. Please wait.

Man Of The Hour Tab

2,109 views 1 this week
no commentswrite comment
1 2 3 4 5
please rate
add to favorites
launch autoscroll
font size
0
reset
how to read this tab
guitar tuner
Autoscroll
slow
fast
+/-
esc
set tempo
stop
Help us to improve Ultimate-Guitar.com Take our survey!
×
Author
K, so this is how i play it... there is actually no guitar in the song... i just picked 
the main parts and turned em into a guitar part... listen to the song and you'll hear 
it is meant to sound like.

Intro
E||-------------------------|----------------------|-------------------------|
B||-------------------------|----------------------|-------------------------|
G||-------------------------|----------------------|-------------------------|
D||-------------------------|----------------------|-------------------------|
A||------------10-----------|---10-----------------|---7-10-7-10/12-10-7-5/7-|
E||-3-5-3-5-8--12-3-5-3-----|-8-12-3-5-3-5---------|-8-----------------------|

E||-------------------------|----------------------|----------------------|
B||-------------------------|----------------------|----------------------|
G||-------------------------|----------------------|----------------------|
D||-------------------------|----------------------|----------------------|
A||------------10-----------|---10-----------------|----10----------------|
E||---------8--12-3-5-------|-7-10-3-5-------------|-8--12-3-5------------|
     right after "me"         right on "said"        right after "choose"

E||-------------------------|----------------------|----------------------|
B||-------------------------|----------------------|----------------------|
G||-------------------------|----------------------|----------------------|
D||---10--------------------|----------------------|----------------------|
A||-8-12--------------------|---10-----------------|----10----------------|
E||------8------------------|-8-12-3-5-------------|-7--10-3-5------------|
     Right on "pot"           right after "you"      right after "sweet"

E||-------------------------|----------------|----------------------|
B||-------------------------|----------------|----------------------|
G||-------------------------|----------------|----------------------|
D||-------------------------|---10-----------|----------------------|
A||------------10-----------|-8-12-----------|----10-------8--------|
E||---------8--12-3-5-------|-----8----------|-8--12-5-3-1-8-3------|
     right on "give"          right on "eat"     right on "that's"

E||-------------------|
B||-------------------|
G||-------------------|
D||-------------------|
A||----10-------------|
E||-8--12-3-3-5-3-5-8-|
     right on "hour"

E||-------------------------|----------------------|----------------------|
B||-------------------------|----------------------|----------------------|
G||-------------------------|----------------------|----------------------|
D||-------------------------|----------------------|----------------------|
A||------------10-----------|---10-----------------|----10----------------|
E||---------8--12-3-5-------|-7-10-3-5-------------|-8--12-3-5------------|
     right after "lie"         right after "cheat"     right after "have"

E||-------------------------|----------------------|----------------------|
B||-------------------------|----------------------|----------------------|
G||-------------------------|----------------------|----------------------|
D||---10--------------------|----------------------|----------------------|
A||-8-12--------------------|---10-----------------|----10----------------|
E||------8------------------|-8-12-3-5-------------|-7--10-3-5------------|
     Right on "four"         right after "deserve"    right after "one"

E||-------------------------|-----------------|----------------------|
B||-------------------------|-----------------|----------------------|
G||-------------------------|-----------------|----------------------|
D||-------------------------|---10------------|----------------------|
A||------------10-----------|-8-12------------|----10-------8--------|
E||---------8--12-3-5-------|-----8-----------|-8--12-5-3-1-8-3------|
     right on "feed"         right on "take"     right on "will"

E||-------------------|
B||-------------------|
G||-------------------|
D||-------------------|
A||----10-------------|
E||-8--12-3-3-5-3-5-8-|
     right on "hour"

E||-------------------------|---------------------|
B||-------------------------|---------------------|
G||-------------------------|---------------------|
D||------10---10------------|---------------------|
A||----8-12-8-12---10----10-|---10---10---10---10-|
E||-8/7----------8-12--8-12-|-3-10-3-10-8-12-8-12-|
   "i know you'll never bring me flowers... flowers they only die."

E||-------------------------|
B||-------------------------|
G||-------------------------|
D||------10---10------------|
A||----8-12-8-12------------|
E||--------------8-7-5------|
   "and though we'll never take a shower together"

E||----------------------|----------------------|------------------|
B||----------------------|----------------------|------------------|
G||----------------------|----------------------|------------------|
D||-12-12----------------|---12-12--------------|------------------|
A||-12-12----------------|---12-12--------------|------------------|
E||-10-10----------------|---10-10--------------|-7-5-3------------|
   right after "i know"    right after "never"    right on "cry"

E||-------------------------|----------------------|----------------------|
B||-------------------------|----------------------|----------------------|
G||-------------------------|----------------------|----------------------|
D||-------------------------|----------------------|----------------------|
A||------------10-----------|---10-----------------|----10----------------|
E||---------8--12-3-5-------|-7-10-3-5-------------|-8--12-3-5------------|
     right on "argue"            right on "talk"        right on "like"

E||-------------------------|----------------------|----------------------|
B||-------------------------|----------------------|----------------------|
G||-------------------------|----------------------|----------------------|
D||---10--------------------|----------------------|----------------------|
A||-8-12--------------------|---10-------8---------|----10-------8--------|
E||------8------------------|-8-12-5-3-1-8-3-------|-8--12-5-3-1-8-3------|
     Right on "when"         right on "will"        right on "hour"

E||----------------------|
B||----------------------|
G||----------------------|
D||----------------------|
A||----10-------8--------|
E||-8--12-5-3-1-8-3------|
     right on "hour"

E||--------------------12-|
B||---13----13----13---13-|
G||-12-12-11-11-10-10--12-|
D||-----------------------|
A||-----------------------|
E||-----------------------|
    right on "hour"
Suggest correction new What's this?
You can suggest a correction to this tab. Community and Mods will review your correction and vote to approve or reject it.
comments
We did not receive enough feedback on this tab! Please rate:
print report bad tab
1 2 3 4 5
guest
You may want to rate the tab now too:
select rating
Please do not post tabs as comments. Select "correction" instead!