Oops, an error
Loading. Please wait.

Not My Friend tab

version 1
version 1

Whole song

3,583 views 3 this week
1 commentread comment
1 2 3 4 5
2 more votes to show rating
add to favorites
×
Save as Personal and add changes to this tab that will be seen only by you. Learn more ›
×
You can save this tab as Personal to edit and correct it or add notes. All changes will be seen only by you. Learn more »
launch autoscroll
font size
0
reset
how to read this tab
guitar tuner
edit
Autoscroll
slow
fast
+/-
esc
set tempo
stop
Author
Difficulty
Norah Jones - Not my friend


F#    : 244322
F#*   : 243322
G#    : 466544
Bm    : x24432
F#**  : 223222


Intro:
  F#                F#*               F#                F#*       
|-----------------|-----------------|-----------------|-----------------|
|-----2-------2---|-----2-------2---|-----2-------2---|-----2-------2---|
|---3---3---3---3-|---3---3---3---3-|---3---3---3---3-|---3---3---3---3-|
|-4-------4-------|-3-------3-------|-4-------4-------|-3-------3-------|
|-----------------|-----------------|-----------------|-----------------|
|-----------------|-----------------|-----------------|-----------------|


Verse:
  F#                F#*               F#                F#*
|-----------------|-----------------|-----------------|-----------------|
|-----2-------2---|-----2-------2---|-----2-------2---|-----2-------2---|
|---3---3---3---3-|---3---3---3---3-|---3---3---3---3-|---3---3---3---3-|
|-4-------4-------|-3-------3-------|-4-------4-------|-3-------3-------|
|-----------------|-----------------|-----------------|-----------------|
|-----------------|-----------------|-----------------|-----------------|

Help me breathe,
Help me believe,
You seem really glad that I am sad.


Chorus:
  G#                Bm                F#
|-----------------|-----------------|-----------------|-----------------|
|-----4-------4---|-----3-------3---|-----2-------2---|-----2-------2---|
|---5---5---5---5-|---4---4---4---4-|---3---3---3---3-|---3---3---3---3-|
|-6-------6-------|-4-------4-------|-4-------4-------|-4-------4-------|
|-----------------|-----------------|-----------------|-----------------|
|-----------------|-----------------|-----------------|-----------------|

You are not my friend,
I cannot pretend that you are.


Verse:

You made it sting,
Your voice is ringing,
Just like the boys who laughed at me in school.


Chorus:

You are not my friend,
I cannot pretend anymore.


Bridge: (2x)
  F#                F#**              F#                F#**
|-----------------|-----------------|-----------------|-----------------|
|-----2-------2---|-----2-------2---|-----2-------2---|-----2-------2---|
|---3---3---3---3-|---2---2---2---2-|---3---3---3---3-|---2---2---2---2-|
|-4-------4-------|-3-------3-------|-4-------4-------|-3-------3-------|
|-----------------|-----------------|-----------------|-----------------|
|-----------------|-----------------|-----------------|-----------------|


Chorus:

You found a place,
No one should ever go.


Verse:

I'll be ok,
'Cause when I back away,
I'm gonna keep the handle of your gun in sight.
Suggest correction
Creating personal tab
Creating personal tab
You can edit any tab online and save it as your Personal.

You can edit, replace or remove any tab part or add personal notes – all changes will be seen only by you.

Personal tabs can be accessed anytime from any device, even offline.
Learn more »
Give kudos to tab author, rate the tab!
1 2 3 4 5
comments
print report bad tab
1 comment total.
0 reply
osocaverna 10 May 20, 2014 07:40 AM

Hi, I think the chorus part should be:

|-----------------|-----------------|-----------------|-----------------|
|-----7-------7---|-----7-------7---|-----7-------7---|-----7-------7---|
|---8---8---8---8-|---8---8---8---8-|---8---8---8---8-|---8---8---8---8-|
|-9-------9-------|-8-------8-------|-9-------9-------|-8-------8-------|
|-----------------|-----------------|-----------------|-----------------|
|-----------------|-----------------|-----------------|-----------------|

guest
You may want to rate the tab now too:
select rating
Wanna post a correction for this tab? Suggest correction