Oops, an error
Loading. Please wait.

Enorme tab

11 views 1 this week
no commentswrite comment
1 2 3 4 5
3 more votes to show rating
add to favorites
×
Save as Personal and add changes to this tab that will be seen only by you. Learn more ›
×
You can save this tab as Personal to edit and correct it or add notes. All changes will be seen only by you. Learn more »
launch autoscroll
font size
0
reset
how to read this tab
guitar tuner
edit
Autoscroll
slow
fast
+/-
esc
set tempo
stop
BUENO AQUI LES TRAIGO ESTA CANCION UN POCO DIFICIL
DE EXPLICAR PERO FACIL DE HACER, AHI LES
DEJO LOS ACORDES


ESE ES EL INTRO, PERO TMABIEN SE USA EN TODA
LA CANCION, TAN SOLO VARIA EN LA ENTRADA EL CORO

        G        C1      C2     C3
e-|-----3--------3-------3------3-------|
B-|----3-3------1-1-----0-0----0-0------|
G-|-------------------------------------|
D-|-------------------------------------|
A-|-----------0-------2-------3---------|
E-|--3----------------------------------|

TABIEN SE PUEDE TOCAR COMO SI FUERA UN VALS ASI

       G     C1    C2    C3
e-|----3-----3-----3-----3-----|  DE LA MISMA FORMA
B-|----3-----1-----0-----0-----|  LOS DEMAS ACORDESEL
G-|----0-----0-----0-----0-----|  C5* Y EL Am* PERO TAN
D-|----------------------------|  TAN SOLO UN TIEMPO YA
A-|--------0-----2-----3-------|  NO SERIA DOS CON EN EL
E-|--3-------------------------|  ARPEGIO

BUENO UDS. YA VEAN DE QUE FORMA LO HACEN.


G       C1        C2        C3         G
 Aunque no salgas bien en las fotos de casa
        C1       C2   C3         G
Y las dietas contigo nunca funcionan
  C1          C2          C3          G
Así te duela ver como el mundo adelgaza
  C1           C2   C3         C1      C5*
Así te quiero yo      e-|----3----3-----5---|
                      B-|---1-1--1-1---3----|
                      G-|-------------------| SU ARPEGIO
                      D-|-------------------|
                      A-|-0-----0-----0-----|
                      E-|-------------------|
CORO
   G    C1  C2  C3
Enorme uuuhhhhhaaa
   G    C1  C2  C3
Enorme uuuhhhhhaaa

G       C1        C2        C3         G
 Así te hayas salido del jean varias veces
    C1           C2          C3         G
Y niegas que te compras seis tallas mas ancha
  C1          C2       C3         G
Así no quepa nunca contigo en la cama
 C1           C2   C3         C1         C5
Así te quiero yo      e-|----3----3-----5---|
                      B-|---1-1--1-1---3-3--|
                      G-|-------------------| SU ARPEGIO
                      D-|-------------------|
                      A-|-0-----0-----0-----|
                      E-|-------------------|
CORO
   G    C1  C2  C3
Enorme uuuhhhhhaaa
   G    C1  C2  C3
Enorme uuuhhhhhaaa

C2       C3            C1                 Am*
 Porque enorme es el amor
                e-|----3----3-----3-----3-|
                B-|---1-1--1-1---1-1---1--|
                G-|-----------------------| SU ARPEGIO
                D-|-------------2----2----|
                A-|-0-----0---------------|
                E-|-----------------------|

CORO
             G    C1  C2  C3
Y no el cuerpo uuuhhhhhaaa
   G    C1  C2  C3  termina en G
Enorme uuuhhhhhaaa

            
            
Suggest correction
Creating personal tab
Creating personal tab
You can edit any tab online and save it as your Personal.

You can edit, replace or remove any tab part or add personal notes – all changes will be seen only by you.

Personal tabs can be accessed anytime from any device, even offline.
Learn more »
Give kudos to tab author, rate the tab!
1 2 3 4 5
comments
print report bad tab
guest
Wanna post a correction for this tab? Suggest correction