Oops, an error
Loading. Please wait.

Death Of The Anti Mother Tab

version 2
version 2

Intro

Whole song

1,379 views 1 this week
2 commentsread comments
1 2 3 4 5
please rate
add to favorites
launch autoscroll
font size
0
reset
how to read this tab
guitar tuner
Tab Pro tools
  • play this tab
  • loop segment
  • change instrument
  • show fretboard
  • metronome
×
Best way to learn
"Death Of The Anti Mother"
Autoscroll
slow
fast
+/-
esc
set tempo
stop
Contributor
This is more than the other one and i think its more correct.
drop B?

|-----------------------------------------------------------|
|-----------------------------------------------------------|
|----------------------0-------------------------------0----|
|-----6-4-3------6-4--3-3-3-------6/9--4-3-------6-4--3-3-3-|
|-----8-6-5------8-6-5---5--------8/11-6-5-------8-6-5---5--|
|--0-----------0---------------0--------0-----0-------------|
                                        .


|-----------------------------------------------------------|
|-----------------------------------------------------------|
|-----------------------------------------------------------|
|----------0----------------0-------------------0-----------|
|----6-4--3-3-3-------6-4--3-3-3-------6/9--4--3-3-3--------|
|----8-6-5---5--------8-6-5---5--------8/11-6-5---5---------|
|--0---------------0----------------0--------0-------0~~----|
                                             .

some bass starts up and you just play the line above until...

|--------------------|
|--------------------|
|--------------------|
|----------33333333--|
|--------3333333333--|
|--3333333333333333--|


|--------------------|
|------------8-------|
|----------10-10--10-|
|--0-3-1-0------12---|
|--0-3-1-0-----------|
|--0-3-1-0-----------| x2


|----------------------|
|--------------8-------|
|------------10-10--10-|
|--0-3/6-1-0------12---|
|--0-3/6-1-0-----------|
|--0-3/6-1-0-----------|

|------------------------|
|------------------------|
|------------------------|
|--0-3/6-1-0-1/11(x4)----|
|--0-3/6-1-0-1/11--------|
|--0-3/6-1-0-1/11--------| x4
  (just repeat the 11s)


|-------------------------------------------------------------|
|-------------------------------------------------------------|
|-------------------------------------------------------------|
|--0--12-10-12---10-12-10-13--0-3-0---12-10-12---10-12-10-13--|
|--0--12-10-12---10-12-10-13--0-3-0---12-10-12---10-12-10-13--|
|--0--12-10-12---10-12-10-13--0-3-0---12-10-12---10-12-10-13--|


|-------------------------------------------------------------------|
|-------------------------------------------------------------------|
|-------------------------------------------------------------------|
|--0-3-0-000-12-10-12---10-12-10-13--0-3-0---12-10-12---10-12-10-13-|
|--0-3-0-000-12-10-12---10-12-10-13--0-3-0---12-10-12---10-12-10-13-|
|--0-3-0-000-12-10-12---10-12-10-13--0-3-0---12-10-12---10-12-10-13-|
         ...


|---------------------------|
|---------------------------|
|---------------------------|
|--0-000-6-000-6~-00-6-0-6--|
|--0-000-6-000-6~-00-6-0-6--|
|--0-000-6-000-6~-00-6-0-6--|
     ...   ...    ..   .

eh that last parts not right but deal with it.
i might tab more later.
comments
We did not receive enough feedback on this tab! Please rate:
print report bad tab
1 2 3 4 5
2 comments total.
0 reply
FranKLynn wrote on February 11 2009, 05:23 pm

looks right

0 reply
abackseatmoment wrote on April 16 2011, 11:53 pm

|-----------------------------------------------------------|
|-----------------------------------------------------------|
|----------------------0-------------------------------0----|
|-----7-5-3------7-5--3-3-3-------7/10-5-3-------7-5--3-3-3-|
|-----8-6-5------8-6-5---5--------8/11-6-5-------8-6-5---5--|
|--0-----------0---------------0--------0-----0-------------|
.

just my take on it. but good job man.

I want to post or [tab]
guest
You may want to rate the tab now too:
select rating
Please do not post tabs as comments. Select "correction" instead!