Oops, an error
Loading. Please wait.

High Noise Low Output Tab

version 1
version 1

Whole song

1,480 views 3 this week
no commentswrite comment
1 2 3 4 5
please rate
add to favorites
launch autoscroll
font size
0
reset
how to read this tab
guitar tuner
Autoscroll
slow
fast
+/-
esc
set tempo
stop
Help us to improve Ultimate-Guitar.com Take our survey!
×
Contributor
Difficulty
Tuning
intermediate
C# G# C# F# A# D#
My first tab! I'm pretty sure that at last 80% of this is rigth.
Please feel free to send me corrections or anything else.
Thanks!

Tuning: Drop Db (D Flat) (Db Ab db Gb Bb Eb)

Norma Jean - High Noise, Low Output

^(Bend) /(Slide) h(Hamer on) p (Pull off) PM * (Palm mute)
AP ^ (Alt. Picking (UP)) AP v (Alt. Picking (Down))


Intro:

Guitar 2 (Lead)

Eb|------------------------------------------------------------------|
Bb|------------------------------------------------------------------|
Gb|--0-0-0-0--0-0-0-0--*0-0-0-----0--0--0-0-0---0-0---(x4-from-*)----| 
db|--5-5-5-5^-5-5-5-5^--5-5-5/12-12-12--8-8-8/3-3-3------------------| 
Ab|------------------------------------------------------------------|
Db|------------------------------------------------------------------|

Guitar 1 (Rythm)

Eb|------------------------------------------------------------------|
Bb|------------------------------------------------------------------|
Gb|------------------------------------------------------------------|
db|--5-5-5-0-0--8-8-8/4-4-4---5-5-5-0-0--8-8-8/4-xxx-xx--------------|
Ab|--5-5-5-0-0--8-8-8/4-4-4---5-5-5-0-0--8-8-8/4-xxx-xx--------------|
Db|--5-5-5-0-0--8-8-8/4-4-4---5-5-5-0-0--8-8-8/4-xxx-xx--------------|

(Guitar 2 (Lead) starts again here)

Guitar 1 (Rythm)

Eb|------------------------------------------------------------------|
Bb|------------------------------------------------------------------|
Gb|------------------------------------------------------------------|
db|--5-5-5-0-0--8-8-8/4-4-4---5-5-5-0-0--8-8-8/4-4-4-4-4-44444444----|
Ab|--5-5-5-0-0--8-8-8/4-4-4---5-5-5-0-0--8-8-8/4-4-4-4-4-44444444----|
Db|--5-5-5-0-0--8-8-8/4-4-4---5-5-5-0-0--8-8-8/4-4-4-4-4-44444444----|

Guitar 2 (Lead)

Eb|------------------------------------------------------------------|
Bb|------------------------------------------------------------------|
Gb|------------------------------------------------------------------|
db|--5--7--8--7--^----8--10--11--7--^--------------------------------|
Ab|------------------------------------------------------------------|
Db|------------------------------------------------------------------|

Eb|------------------------------------------------------------------|
Bb|------------------------------------------------------------------|
Gb|------------------------------------------------------------------|
db|--5--7--8--7--^----8--10--11--7-7-7-7-77777777--------------------|
Ab|------------------------------------------------------------------|
Db|------------------------------------------------------------------|

Verse 1

"And I sat through a thousand suns, much sooner than you arrived"

Guitar 1 (Rythm)

Nothing playing this part.

Guitar 2 (Lead)

Eb|--t=10-e=11-----------------------e(Just-keep-hitting this-one)---|
Bb|------------------ttttttteeeeeeeee--------------------------------|
Gb|------------------------------------------------------------------|
db|--8888888555555555------------------------------------------------|
Ab|------------------------------------------------------------------|
Db|------------------------------------------------------------------|
AP   ^v^v^vEtc.

"And I know what your thinking. Just pull the ripcord, and lets decend"

Guitar 1 (Rythm)

Eb|------------------------------------------------------------------|
Bb|------------------------------------------------------------------|
Gb|------------------------------------------------------------------|
db|--5-55-55--5-55-55/888888/3-33-33-------3/1---0-1-----------------|
Ab|--5-55-55--5-55-55/888888/3-33-33--(x2)-3/1---0-1-----------------|
Db|--5-55-55--5-55-55/888888/3-33-33-------3/1---0-1-----------------|
PM                                               *

Guitar 2 (Lead)

I can't hear anything else. Maybe play above with both guitars.

Chorus 1

"You put your parachutes on parade. And you left the pilots on the ground"

Guitar 1 (Rythm)

Eb|------------------------------------------------------------------|
Bb|-----------------------6-6-6p4-4p3-3p1-1h3-33---------------------|
Gb|-----------7-5----------------------------------------------------|
db|--1-1---5h7-5-5-5h7-88--------------------------------------------| (x2)
Ab|--1-1-------------------------------------------------------------|
Db|--1-1-------------------------------------------------------------|

Eb|------------------------------------------------------------------|
Bb|------------------------------------------------------------------|
Gb|------------------------------------------------------------------|
db|--1-1--1-1/3-3/5--------------------------------------------------|
Ab|--1-1--1-1/3-3/5--------------------------------------------------|
Db|--1-1--1-1/3-3/5--------------------------------------------------|

"But if your calling me in, then you better believe I'm gonna call you out"

Eb|------------------------------------------------------------------|
Bb|------------------------------------------------------------------|
Gb|-----------------------7-7-7-7-7-7----7-7-7-7---------------------|
db|--5-5--5/8-3--0-0-0-07-7-7-7-7-7-7-0-07-7-7-7--x-8--x--3--5-5-55--|
Ab|--5-5--5/8-3--0-0-0-05-5-5-5-5-5-5-0-05-5-5-5--x-8--x--3--5-5-55--|
Db|--5-5--5/8-3--0-0-0-0--------------0-0---------x-8--x--3--5-5-55--|

Verse 2

(Lots of background noises)

Guitar 2 (Lead)

Eb|------------------------------------------------------------------|
Bb|------------------------------------------------------------------|
Gb|------------------------------------------------------------------|
db|------------------------------------------------------------------|
Ab|--11^-------------------------------------------------------------|
Db|------------------------------------------------------------------|
(Alot of bending listen to the song)

"Who knows knows the cost and what, may escape you and I cus,"

Guitar 2 (Lead)

Eb|--t=10-e=11-----------------------e(Just-keep-hitting this-one)---|
Bb|------------------ttttttteeeeeeeee--------------------------------|
Gb|------------------------------------------------------------------|
db|--8888888555555555------------------------------------------------|
Ab|------------------------------------------------------------------|
Db|------------------------------------------------------------------|
AP   ^v^v^vEtc.

"It's a long way down from here, I have a feeling that we won't be landing soon!"

Guitar 1 (Rythm)

Eb|------------------------------------------------------------------|
Bb|------------------------------------------------------------------|
Gb|------------------------------------------------------------------|
db|--5-55-55--5-55-55/888888/3-33-33---------------------------------|
Ab|--5-55-55--5-55-55/888888/3-33-33---------------------------------|
Db|--5-55-55--5-55-55/888888/3-33-33---------------------------------|

Eb|------------------------------------------------------------------|
Bb|------------------------------------------------------------------|
Gb|------------------------------------------------------------------|
db|--5-55-55--5-55-55/8---------------0------------------------------|
Ab|--5-55-55--5-55-55/8(Slow-slide-to-0)-----------------------------|
Db|--5-55-55--5-55-55/8---------------0------------------------------|

Chorus 2

"Parachutes on parade. And you left the pilots on the ground"

Guitar 1 (Rythm)

Eb|------------------------------------------------------------------|
Bb|-----------------------6-6-6p4-4p3-3p1-1h3-33---------------------|
Gb|-----------7-5----------------------------------------------------|
db|--1-1---5h7-5-5-5h7-88--------------------------------------------| (x2)
Ab|--1-1-------------------------------------------------------------|
Db|--1-1-------------------------------------------------------------|

Eb|------------------------------------------------------------------|
Bb|------------------------------------------------------------------|
Gb|------------------------------------------------------------------|
db|--1-1--1-1/3-3/5--------------------------------------------------|
Ab|--1-1--1-1/3-3/5--------------------------------------------------|
Db|--1-1--1-1/3-3/5--------------------------------------------------|

"But if your calling me in, then you better believe I'm gonna call you out"

Eb|------------------------------------------------------------------|
Bb|------------------------------------------------------------------|
Gb|-----------------------7-7-7-7-7-7----7-7-7-7---------------------|
db|--5-5--5/8-3--0-0-0-07-7-7-7-7-7-7-0-07-7-7-7--x-8--x--3--5-5-55--|
Ab|--5-5--5/8-3--0-0-0-05-5-5-5-5-5-5-0-05-5-5-5--x-8--x--3--5-5-55--|
Db|--5-5--5/8-3--0-0-0-0--------------0-0---------x-8--x--3--5-5-55--|

Bridge

Guitar 2 (Lead)

Eb|------------------------------------------------------------------|
Bb|--t=13--f=15------------------------------------------------------|
Gb|---0--------0--------0--------0-----------------------------------|
db|--5-(x16)--8-(x16)--t-(x16)--f-(x16)------------------------------|
Ab|------------------------------------------------------------------|
Db|------------------------------------------------------------------|

"Were standing at these doors, whether cowards or conquerers"

Guitar 1 (Rythm)

Eb|------------------------------------------------------------------|
Bb|------------------------------------------------------------------|
Gb|------------------------------------------------------------------|
db|--5--5-5--5-5--5-5--5-5-5-----------------------------------------|
Ab|--5--5-5--5-5--5-5--5-5-5-----------------------------------------|
Db|--5--5-5--5-5--5-5--5-5-5-----------------------------------------|

"They make no promises, they just provide an opening"

Guitar 1 (Rythm)

Eb|------------------------------------------------------------------|
Bb|--(e=11-t=13-f=15)------------------------------------------------|
Gb|------------------------------------------------------------------|
db|--5--5-8--8-e--e-t--t-t-5-----------------------------------------|
Ab|--5--5-8--8-e--e-t--t-t-5-----------------------------------------|
Db|--5--5-8--8-e--e-t--t-t-5-----------------------------------------|

Guitar 2 (Lead)

Eb|------------------------------------------------------------------|
Bb|--8-8-8/f-f-f-f/e-e-e-e/6-6-6-6-----------------------------------|
Gb|------------------------------------------------------------------|
db|------------------------------------------------------------------| (x2)
Ab|------------------------------------------------------------------|
Db|------------------------------------------------------------------|

"And your speach is a thunderous noise, and my ears are catching a dreadfull"

Eb|------------------------------------------------------------------|
Bb|--(e=11-t=13-f=15)------------------------------------------------|
Gb|------------------------------------------------------------------|
db|--5----8----e----t----5-------------------------------------------|
Ab|--5----8----e----t----5-------------------------------------------|
Db|--5----8----e----t----5-------------------------------------------|

Guitar 2 (Lead)

Eb|------------------------------------------------------------------|
Bb|--8-8-8/f-f-f-f/e-e-e-e/6-6-6-6-----------------------------------|
Gb|------------------------------------------------------------------|
db|------------------------------------------------------------------| (x2)
Ab|------------------------------------------------------------------|
Db|------------------------------------------------------------------|

"static"

Guitar 1 (Rythm)

Eb|------------------------------------------------------------------|
Bb|------------------------------------------------------------------|
Gb|------------------------------------------------------------------|
db|--5-5--xxxxxx--5-5--xxxxxxxxxx------------------------------------| (x2)
Ab|--5-5--xxxxxx--5-5--xxxxxxxxxx------------------------------------|
Db|--5-5--xxxxxx--5-5--xxxxxxxxxx------------------------------------|

Chorus 3


"You put your parachutes on parade. And you left the pilots on the ground"

Guitar 1 (Rythm)

Eb|------------------------------------------------------------------|
Bb|-----------------------6-6-6p4-4p3-3p1-1h3-33---------------------|
Gb|-----------7-5----------------------------------------------------|
db|--1-1---5h7-5-5-5h7-88--------------------------------------------| (x2)
Ab|--1-1-------------------------------------------------------------|
Db|--1-1-------------------------------------------------------------|

Eb|------------------------------------------------------------------|
Bb|------------------------------------------------------------------|
Gb|------------------------------------------------------------------|
db|--1-1--1-1/3-3/5--------------------------------------------------|
Ab|--1-1--1-1/3-3/5--------------------------------------------------|
Db|--1-1--1-1/3-3/5--------------------------------------------------|

"But if your calling me in, then you better believe I'm gonna call you out"

Eb|------------------------------------------------------------------|
Bb|------------------------------------------------------------------|
Gb|-----------------------7-7-7-7-7-7----7-7-7-7---------------------|
db|--5-5--5/8-3--0-0-0-07-7-7-7-7-7-7-0-07-7-7-7--x-8--x--3--5-5-55--|
Ab|--5-5--5/8-3--0-0-0-05-5-5-5-5-5-5-0-05-5-5-5--x-8--x--3--5-5-55--|
Db|--5-5--5/8-3--0-0-0-0--------------0-0---------x-8--x--3--5-5-55--|

"Out, out, out, out out out"

Eb|------------------------------------------------------------------|
Bb|------------------------------------------------------------------|
Gb|------------------------------------------------------------------|
db|--5--5--5--5-5-5--5-5---------------------------------------------|
Ab|--5--5--5--5-5-5--5-5---------------------------------------------|
Db|--5--5--5--5-5-5--5-5---------------------------------------------|

Ending

Guitar 1 (Rythm)

Eb|------------------------------------------------------------------|
Bb|------------------------------------------------------------------|
Gb|------------------------------------------------------------------|
db|--5-5-5-0-0--8-8-8/4-4-4---5-5-5-0-0--8-8-8/4-xxx-xx--------------|
Ab|--5-5-5-0-0--8-8-8/4-4-4---5-5-5-0-0--8-8-8/4-xxx-xx--------------|
Db|--5-5-5-0-0--8-8-8/4-4-4---5-5-5-0-0--8-8-8/4-xxx-xx--------------|

Eb|------------------------------------------------------------------|
Bb|------------------------------------------------------------------|
Gb|------------------------------------------------------------------|
db|--5-5-5-0-0--8-8-8/4-4-4---5-5-5-0-0--8-8-8/4-4-4-4-4-44444444----|
Ab|--5-5-5-0-0--8-8-8/4-4-4---5-5-5-0-0--8-8-8/4-4-4-4-4-44444444----|
Db|--5-5-5-0-0--8-8-8/4-4-4---5-5-5-0-0--8-8-8/4-4-4-4-4-44444444----|

Eb|------------------------------------------------------------------|
Bb|------------------------------------------------------------------|
Gb|------------------------------------------------------------------|
db|--5--5--5--5-5--5--5-5--5--5--5-5--5--5---------------------------|
Ab|--5--5--5--5-5--5--5-5--5--5--5-5--5--5---------------------------|
Db|--5--5--5--5-5--5--5-5--5--5--5-5--5--5---------------------------|
comments
We did not receive enough feedback on this tab! Please rate:
print report bad tab
1 2 3 4 5
I want to post or [tab]
guest
You may want to rate the tab now too:
select rating
Please do not post tabs as comments. Select "correction" instead!