Oops, an error
Loading. Please wait.

Memphis Will Be Laid To Waste Tab

version 2
version 2

Whole song

27,489 views 21 this week
17 commentsread comments
1 2 3 4 5
x 23
add to favorites
launch autoscroll
font size
0
reset
how to read this tab
guitar tuner
Autoscroll
slow
fast
+/-
esc
set tempo
stop
Help us to improve Ultimate-Guitar.com Take our survey!
×
Band:  Norma Jean
Song:  Memphis Will Be Laid To Waste
Album: Bless the Martyr and Kiss the Child
Tuning: C# G# C# F# A# D#

[Riff 1]
(Both Guitars)
e|-----------------|
B|-----------------|
G|-----------------|
D|-6-6-6-6-6-6-6-6-|
A|-6-6-6-6-6-6-6-6-|
E|-6-6-6-6-6-6-6-6-|

[Riff 2]
 (Both Guitars)
 (Guitar 2 waits till guitar one plays it 
 4 times than come in with drums and vocals)
e|-----------------------|
B|-------4-44444-4444444-|
G|-------7-77777-7777777-|
D|--000------------------|
A|--000------------------|
E|--000------------------|
pm ...    .....

[Riff 3]
e|-------------------------------------------------------|
B|-------------------------------------------------------|
G|-------------------------------------------------------|
D|-------------------------------------------------------|
A|----0----0----0----0----0------0----0-------0----0---0-|
E|-44---44---44---44---44---4-33---33---3-0-0---00---0---| 

[Riff 4]
e|-----------------------------|
B|-7-7-7-7-7~-7-7-7-7-7~-7~----|
G|-4-4-4-4-4~-4-4-4-4-4~----4~-|
D|-4-4-4-4-4~-4-4-4-4-4~-------|
A|---------0~---------0~-------|
E|---------0~---------0~-------|

[Riff 5]
e|------------------------------------------------------------|
B|------------------------------------------------------------|
G|------------------------------------------------------------|
D|--00000------00000-0-0-0--0-0-0—-00000------00000-----0-0-0-|
A|--00000------00000-0-0-0--0-0-0—-00000------00000-----0-0-0-|
E|--00000------00000-0-0-0--0-0-0--00000------00000-----0-0-0-|(x2)
pm .....      ..... . . .  . . .  .....      .....     . . .

[Riff 6]
e|-------|
B|-------|
G|-------|
D|-8~-4~-|
A|-8~-4~-|
E|-8~-4~-|

[Back to Riff 2]just played faster this time
[Riff 7]
e|-------------------|
B|-----------4-4-4-4-|
G|-----------7-7-7-7-|
D|--0-0-0-0----------|
A|--0-0-0-0----------|
E|--0-0-0-0----------|x4
pm . . . .

[Riff 8]
e|-----------------------|
B|-----------------------|
G|-----------------------|
D|--0000000~--0-0~--0-0~-|
A|--0000000~--0-0~--0-0~-|
E|--0000000~--0-0~--0-0~-|x3
pm .......   . .   . .
Than on the 4th time play it without 
holding the notes. And continue to play it

[Riff 9]
 (Guitar 1 and 2)
e|-----------------------|
B|-----------------------|
G|-----------------------|
D|--0000000---0-0---0-0--|
A|--0000000---0-0---0-0--|
E|--0000000---0-0---0-0--|x12
pm .......   . .   . .

Guitar 1 plays this riff after playing the one above
 8 times.
e|----------------------------|
B|----------------------------|
G|--9~-10~--9~-----9~-10~--9~-|
D|--x~--x~--x~-----x~--x~--x~-|
A|--7~--8~--7~-----7~--8~--7~-|
E|----------------------------|

[Riff 10]
e|-----|
B|-----|
G|-----|
D|--8~-|
A|--8~-|
E|--8~-|x4

 (just guitar 1)    (both guitars)
e|-------------|    |-------------|
B|-------------|    |-------------|
G|-------------|    |-------------|
D|-------------|    |-0h2/88-8888-|
A|-------------|    |-0h2-88-8888-|
E|-0h2/88-8888-|x4  |-0h2/88-8888-|x4

[Outro]
(Guitar 1)
e|--------------------|
B|--------------------|
G|--------------------|
D|-10-10—-10-10-10-10-|
A|-8—-8----8—-8—-8—-8-|
E|-8—-8----8—-8—-8—-8-|

[Guitar 2]
e|----------------------------------------------|
B|----------------------------------------------|
G|-10-10-101010-10—-10-10-101010/11-11-11111111-|
D|--x--x--x-x-x--x—--x--x--x-x-x/-x--x--x-x-x-x-|
A|--8--8--8-8-8--8—--8--8--8-8-8/-9--9--9-9-9-9-|
E|----------------------------------------------|

both guitars end on 
e|----|
B|----|
G|----|
D|-6~-|
A|-4~-|
E|-4~-|

************************************

| ~  Vibrato
| .  Staccato
| h  Hammer-on
| /  Slide up
| x  Dead note

************************************
Suggest correction
comments
print report bad tab
17 comments total. Showing first comments.
0 reply
harobike62 85 Jun 16, 2005 12:00 AM

its not perfect but alot better than the other memphis tab

0 reply
poisonthewell19 20 Jul 14, 2005 12:00 AM

great tab man,good to see people tabbing great songs like this one

0 reply
<the_last> 120 Apr 26, 2006 09:49 PM

good work, but instead on riff 10 it shhould be
|-----|
|-----|
|-----|
|-11~-|
|--8~-|
|--8~-|

guest
You may want to rate the tab now too:
select rating
Wanna post a correction for this tab? Suggest correction