Oops, an error
Loading. Please wait.

Murphy Was An Optimist tab

version 1
version 1

Whole song

Interactive

912 views 3 this week
no commentswrite comment
1 2 3 4 5
3 more votes to show rating
add to favorites
×
Save as Personal and add changes to this tab that will be seen only by you. Learn more ›
×
You can save this tab as Personal to edit and correct it or add notes. All changes will be seen only by you. Learn more »
launch autoscroll
font size
0
reset
how to read this tab
guitar tuner
edit
Autoscroll
slow
fast
+/-
esc
set tempo
stop
easy, fun song to play from the Anti Mother album

0:00
|--------------------------------------------------|
|--------------------------------------------------| 
|--------------------------------------------------| 
|---7--7--7--7--7--7--7--7--7--7--7--7--7--7--6-6--| 
|---9--9--9--9--9--9--9--9--9--9--9--9--9--9--7-7--| 
|--------------------------------------------------| 

|-------------------------------------------------------------------| 
|-------------------------------------------------------------------| 
|-------------------------------------------------------------------| 
|---7--7--7--7--7--7--7--7--7---9---9---9---9---9---9---9---9---6-6-| 
|---9--9--9--9--9--9--9--9--9---9---9---9---9---9---9---9---9---7-7-| 
|-------------------------------------------------------------------|     

0:27 
|----------------------------------| 
|----------------------------------| 
|----------------------------------| 
|----------------------------------| 
|--2/5-5---------------------------| 
|--------5-4-4-4-4-4-4-4-4-4-4-4-4-| 

|----------------------------------------------| 
|----------------------------------------------| 
|----------------------------------------------| 
|----------------------------------------------| 
|--2/5-5---------------------------------------| 
|--------5-4-4-4-4-4-4-4-2~--4-4-4-4-4-4-4-4-4-| 

|----------|---------------------------| 
|----------|---------------------------| 
|----------|---------------------------| 
|----------|---------------------------| 
|--2/5-5-4-|-2-2-2-2-2-2-2-2-2-0-0-0-0-| 
|--------4-|-2-2-2-2-2-2-2-2-2-0-0-0-0-| 

|----------------------------------| 
|----------------------------------| 
|----------------------------------| 
|----------------------------------| 
|--2/5-5---------------------------| 
|--------5-4-4-4-4-4-4-4-4-4-4-4-4-| 

|----------------------------------------------| 
|----------------------------------------------| 
|----------------------------------------------| 
|----------------------------------------------| 
|--2/5-5---------------------------------------| 
|--------5-4-4-4-4-4-4-4-2~--4-4-4-4-4-4-4-4-4-| 

|------------------------------------| 
|------------------------------------| 
|------------------------------------| 
|------------------------------------| 
|--2/5-5-4-2-2-2-2-2--2-2-0-0-0--0-0-| 
|--------4-2-2-2-2-2--2-2-0-0-0--0-0-| 

|-----------------------------------------|
|-----------------------------------------|
|-11--11-11-11-11-11--18--18-18-18-18-18--| 
|-x---x--x--x--x--x----x---x--x--x--x--x--|
|-9---9--9--9--9--9---16--16-16-16-16-16--|
|-----------------------------------------|

0:51
|-------------------------------------------------------| 
|-------------------------------------------------------| 
|-14--14-14-14-14--14--18--18-18-18-18-18---9--9--9--9--| 
|--x---x--x--x--x--x----x---x--x--x--x--x---x--x--x--x--| 
|-12--12-12-12-12-12---16--16-16-16-16-16---7--7--7--7--| 
|-------------------------------------------------------| 

|-------------------------------------------------------| 
|-------------------------------------------------------| 
|-14--14-14-14-14-14---18--18-18-18-18-18---9--9--9--9--| 
|--x---x--x--x--x--x----x---x--x--x--x--x---x--x--x--x--| 
|-12--12-12-12-12-12---16--16-16-16-16-16---7--7--7--7--| 
|-------------------------------------------------------| 

played over lead (0:58)
|-----------------------------------------------------------| 
|-----------------------------------------------------------| 
|-----------------------------------------------------------| 
|-----------------------------------------------------------| 
|-0-0-0-0-0--0-0-0-0-0--0-0-0-0-2-2-2-2-2--2-2-2-2-2--2-2-2-| 
|-0-0-0-0-0--0-0-0-0-0--0-0-0-0-2-2-2-2-2--2-2-2-2-2--2-2-2-|

|-------------------------------------------------------| 
|-------------------------------------------------------| 
|-14--14-14-14-14-14---18--18-18-18-18-18---9--9--9--9--| 
|--x---x--x--x--x--x----x---x--x--x--x--x---x--x--x--x--| 
|-12--12-12-12-12-12---16--16-16-16-16-16---7--7--7--7--| 
|-------------------------------------------------------| 

|-------------------------------------------------------| 
|-------------------------------------------------------| 
|-14--14-14-14-14-14---18--18-18-18-18-18---9--9--9--9--| 
|--x---x--x--x--x--x----x---x--x--x--x--x---x--x--x--x--| 
|-12--12-12-12-12-12---16--16-16-16-16-16---7--7--7--7--| 
|-------------------------------------------------------| 

|-----------------------------------------------------------| 
|-----------------------------------------------------------| 
|-----------------------------------------------------------| 
|-----------------------------------------------------------| 
|-0-0-0-0-0--0-0-0-0-0--0-0-0-0-2-2-2-2-2--2-2-2-2-2--2-2-2-| 
|-0-0-0-0-0--0-0-0-0-0--0-0-0-0-2-2-2-2-2--2-2-2-2-2--2-2-2-|

1:16
|-------------0--------------------------------------------|
|-----2-------0-------------------2------------------------|
|-----2---------------------------2------------------------|
|----------------------------------------------------------|
|-2h4---0-2-4----------------0-2h4--0-2-4------------------|
|-2h4---0-2-4----0-2-2-2-2---0-2h4--0-2-4--0-0-0-0-0-0-0-0-|
        . .                         . .               

|---------------------------------------|
|----2-------1------------------2-------|
|----2-------1------------------2-------|	
|---------------------------------------|
|-2h4--0-2-4--------------0-2h4---0-2-4-|
|-2h4--0-2-4---0-2-2-2-2--0-2h4---0-2-4-|
       . .                        . .

|-------------------------------|	
|-------------------------------|
|-------------------------------|	
|-0-0-0-0-0-0-0-0--2-2-2-2-2-2--|
|-0-0-0-0-0-0-0-0--2-2-2-2-2-2--|	
|-0-0-0-0-0-0-0-0--2-2-2-2-2-2--|

1:32
|----------------------------------| 
|----------------------------------| 
|----------------------------------| 
|----------------------------------| 
|--2/5-5---------------------------| 
|--------5-4-4-4-4-4-4-4-4-4-4-4-4-| 

|----------------------------------------------| 
|----------------------------------------------| 
|----------------------------------------------| 
|----------------------------------------------| 
|--2/5-5---------------------------------------| 
|--------5-4-4-4-4-4-4-4-2~--4-4-4-4-4-4-4-4-4-| 

|----------|-----------------------------| 
|----------|-----------------------------| 
|----------|-----------------------------| 
|----------|-----------------------------| 
|--2/5-5-4-|-2-2-2-2-2--2-2-0-0-0---0--0-| 
|--------4-|-2-2-2-2-2--2-2-0-0-0---0--0-| 

1:42
|-------------------------------------------------------| 
|-------------------------------------------------------| 
|-14--14-14-14-14-14---18--18-18-18-18-18---9--9--9--9--| 
|--x---x--x--x--x--x----x---x--x--x--x--x---x--x--x--x--| 
|-12--12-12-12-12-12---16--16-16-16-16-16---7--7--7--7--| 
|-------------------------------------------------------| 

|-------------------------------------------------------| 
|-------------------------------------------------------| 
|-14--14-14-14-14-14---18--18-18-18-18-18---9--9--9--9--| 
|--x---x--x--x--x--x----x---x--x--x--x--x---x--x--x--x--| 
|-12--12-12-12-12-12---16--16-16-16-16-16---7--7--7--7--| 
|-------------------------------------------------------| 

|-----------------------------------------------------------| 
|-----------------------------------------------------------| 
|-----------------------------------------------------------| 
|-----------------------------------------------------------| 
|-0-0-0-0-0--0-0-0-0-0--0-0-0-0-2-2-2-2-2--2-2-2-2-2--2-2-2-| 
|-0-0-0-0-0--0-0-0-0-0--0-0-0-0-2-2-2-2-2--2-2-2-2-2--2-2-2-|

|-------------------------------------------------------| 
|-------------------------------------------------------| 
|-14--14-14-14-14-14---18--18-18-18-18-18---9--9--9--9--| 
|--x---x--x--x--x--x----x---x--x--x--x--x---x--x--x--x--| 
|-12--12-12-12-12-12---16--16-16-16-16-16---7--7--7--7--| 
|-------------------------------------------------------| 

|-------------------------------------------------------| 
|-------------------------------------------------------| 
|-14--14-14-14-14-14---18--18-18-18-18-18---9--9--9--9--| 
|--x---x--x--x--x--x----x---x--x--x--x--x---x--x--x--x--| 
|-12--12-12-12-12-12---16--16-16-16-16-16---7--7--7--7--| 
|-------------------------------------------------------| 

|-----------------------------------------------------------| 
|-----------------------------------------------------------| 
|-----------------------------------------------------------| 
|-----------------------------------------------------------| 
|-0-0-0-0-0--0-0-0-0-0--0-0-0-0-2-2-2-2-2--2-2-2-2-2--2-2-2-| 
|-0-0-0-0-0--0-0-0-0-0--0-0-0-0-2-2-2-2-2--2-2-2-2-2--2-2-2-|

2:08
|-------------0--------------------------------------------|
|-----2-------0-------------------2------------------------|
|-----2---------------------------2------------------------|
|----------------------------------------------------------|
|-2h4---0-2-4----------------0-2h4--0-2-4------------------|
|-2h4---0-2-4----0-2-2-2-2---0-2h4--0-2-4--0-0-0-0-0-0-0-0-|
        . .                         . .               

|---------------------------------------|
|----2-------1------------------2-------|
|----2-------1------------------2-------|	
|---------------------------------------|
|-2h4--0-2-4--------------0-2h4---0-2-4-|
|-2h4--0-2-4---0-2-2-2-2--0-2h4---0-2-4-|
       . .                        . .

|-------------------------------|	
|-------------------------------|
|-------------------------------|	
|-0-0-0-0-0-0-0-0--2-2-2-2-2-2--|
|-0-0-0-0-0-0-0-0--2-2-2-2-2-2--|	
|-0-0-0-0-0-0-0-0--2-2-2-2-2-2--|

|----------| 
|----------| 
|----------| 
|----------| 
|--2/5-5---| 
|--------5-| 

random stuff going on in the background, just mess around with the above riff and palm muting

2:37
|------------------------------------------------------------------|
|------------------------------------------------------------------|
|------------------------------------------------------------------|
|------------------------------------------------------------------|
|-2/5-5----------------------------2/5-5---------------------------|
|-------5-4^-4^-4^-4^-4^-4^-4^-4^--------5-4^-4^-4^-4^-4^-4^-4^-4^-|

|-----------------------------------------------------|
|-----------------------------------------------------|
|-----------------------------------------------------| I can’t quite
|-----------------------------------------------------| make out the
|-2/5-5-----------------------------------------------| end of this
|-------5---2--2--2--2--2-2-2-2---0--0--0--0--0-0-0-0-|  riff
            .  .  .  .  . . . .   .  .  .  .  . . . . 

2:51
|----------------------------------------------------|
|----------------------------------------------------|
|----------------------------------------------------|
|-0--0--0--0---2--2--2--2---4--4--4--4--4--4--4--4---| 2x
|-0--0--0--0---2--2--2--2---4--4--4--4--4--4--4--4---|
|-0--0--0--0---2--2--2--2---4--4--4--4--4--4--4--4---|

|--------------------------------------------------------------------|
|--------------------------------------------------------------------|
|--------------------------------------------------------------------|
|-0-0-0-0-0-0-0-0--2-2-2-2-2-2-2-2--6-6-6-6-6-6-6-6--7-7-7-7-7-7-7-7-|
|-0-0-0-0-0-0-0-0--2-2-2-2-2-2-2-2--6-6-6-6-6-6-6-6--7-7-7-7-7-7-7-7-|
|-0-0-0-0-0-0-0-0--2-2-2-2-2-2-2-2--6-6-6-6-6-6-6-6--7-7-7-7-7-7-7-7-|

|-------------------------------------------------------------|
|-------------------------------------------------------------|
|-------------------------------------------------------------|
|-4-x-x-x-x-4-x-x-x-x-0-2-2-2-2--4-x-x-x-x-4------------------|
|-4-x-x-x-x-4-x-x-x-x-0-2-2-2-2--4-x-x-x-x-4------------------|
|-4-x-x-x-x-4-x-x-x-x-0-2-2-2-2--4-x-x-x-x-4--0-0-0-0-0-0-0-0-|

3:18
|-------------0--------------------------------------------|
|-----2-------0-------------------2------------------------|
|-----2---------------------------2------------------------|
|----------------------------------------------------------|
|-2h4---0-2-4----------------0-2h4--0-2-4------------------|
|-2h4---0-2-4----0-2-2-2-2---0-2h4--0-2-4--0-0-0-0-0-0-0-0-|
        . .                         . .               

|---------------------------------------|
|----2-------1------------------2-------|
|----2-------1------------------2-------|	
|---------------------------------------|
|-2h4--0-2-4--------------0-2h4---0-2-4-|
|-2h4--0-2-4---0-2-2-2-2--0-2h4---0-2-4-|
       . .                        . .

|-------------------------------|	
|-------------------------------|
|-------------------------------|	
|-0-0-0-0-0-0-0-0--2-2-2-2-2-2--|
|-0-0-0-0-0-0-0-0--2-2-2-2-2-2--|	
|-0-0-0-0-0-0-0-0--2-2-2-2-2-2--|

|-----------------| 
|-----------------| 
|-----------------| 
|-------------0~~-| 
|--2/5-5------0~~-| 
|--------5----0~~-| 


props to doyouseeit for the first half of the song
I'm not sure about the high notes on the chorus, but it's close

            
            
Suggest correction
Creating personal tab
Creating personal tab
You can edit any tab online and save it as your Personal.

You can edit, replace or remove any tab part or add personal notes – all changes will be seen only by you.

Personal tabs can be accessed anytime from any device, even offline.
Learn more »
Give kudos to tab author, rate the tab!
1 2 3 4 5
comments
print report bad tab
guest
You may want to rate the tab now too:
select rating
Wanna post a correction for this tab? Suggest correction