Oops, an error
Loading. Please wait.

Songs Sound Much Sadder bass

2,321 views 3 this week
2 commentsread comments
1 2 3 4 5
1 last vote to show rating
add to favorites
×
Save as Personal and add changes to this tab that will be seen only by you. Learn more ›
×
You can save this tab as Personal to edit and correct it or add notes. All changes will be seen only by you. Learn more »
launch autoscroll
font size
0
reset
guitar tuner
edit
Autoscroll
slow
fast
+/-
esc
set tempo
stop
------------------------------------------------------------------------------------
			     Songs sound much sadder – Norma Jean
------------------------------------------------------------------------------------

Tabbed By: crazyrockr98
Strumming may not be right but everything else is correct!! This is my first tab and its good!

Tuning: Drop D
(Come in at 0:06) those are tens not ones and zeros!!
G|-----------------------------------------------------------------------------|
D|-------------1010101010101010-------1010101010101010-------------------------|
A|-----------------------------------------------------------------------------|
D|-00--00-------------------------00-00-------------------------00-00-00-00----|

	(0:16)
G|-----------------------------------------------------------------------------|
D|-----------------------------------------------------------------------------|
A|-----------------------------------------------------------------------------|
D|-----0-12/1---0-12/1---0-12/1---0-12/5---------------------------------------|

                   (0:21)             (Those are twelve’s and fifteens)
G|-----------------------------------------------------------------------------|
D|-----------------------------------------------------------------------------|
A|----5555-7777-12121212-1515151515151515--------------------------------------|
D|-----------------------------------------------------------------------------|

G|------------------------------------------------------------------------------|
D|------------------------------------------------------------------------------|
A|----5555-7777-12121212-1515151515151515---------------------------------------|
D|------------------------------------------------------------------------------|


           (0:35)
G|-----------------------------------------------------------------------------|
D|-----------------------------------------------------------------------------|
A|-----------5555-7777-12121212-1515151515151515-------------------------------|
D|---00-00---------------------------------------------------------------------|

G|-----------------------------------------------------------------------------|
D|-----------------------------------------------------------------------------|
A|----5555-7777-12121212-1515151515151515--------------------------------------|
D|-----------------------------------------------------------------------------|


	     (0:46)
G|-----------------------------------------------------------------------------|
D|-----------------------------------------------------------------------------|
A|-----------------------------------------------------------------------------|
D|-----55555-77777-000000000-55555-77777-000000000-----------------------------|

G|-----------------------------------------------------------------------------|
D|-----------------------------------------------------------------------------|
A|-----------------------------------------------------------------------------|
D|----88888-77777-000000 1010101010 88888-77777--------------------------------|

	(1:03)
G|-----------------------------------------------------------------------------|
D|-----------------------------------------------------------------------------|
A|-----------------------------------------------------------------------------|
D|-----0-12/1---0-12/1---0-12/1---0-12/--XX------------------------------------|


	(1:13)
G|-----------------------------------------------------------------------------|
D|-----------------------------------------------------------------------------|
A|-----------------------------------------------------------------------------|
D|----XX--00-00-00-00--XX------------------------------------------------------|

        (1:18)
G|-----------------------------------------------------------------------------|
D|-----------------------------------------------------------------------------|
A|----5555-7777-12121212-1515151515151515--------------------------------------|
D|-----------------------------------------------------------------------------|

G|-----------------------------------------------------------------------------|
D|-----------------------------------------------------------------------------|
A|----5555-7777-12121212-1515151515151515--------------------------------------|
D|-----------------------------------------------------------------------------|


      (1:28)
G|-----------------------------------------------------------------------------|
D|-----------------------------------------------------------------------------|
A|-----------------------------------------------------------------------------|
D|----0000000000-8888-5555--0000000000-8888-5555-------------------------------|

	(1:38)
G|-----------------------------------------------------------------------------|
D|-----------------------------------------------------------------------------|
A|-----------------------------------------------------------------------------|
D|-----55555-77777-000000000-55555-77777-000000000-----------------------------|

G|-----------------------------------------------------------------------------|
D|-----------------------------------------------------------------------------|
A|-----------------------------------------------------------------------------|
D|----88888-77777-000000 1010101010 88888-77777~~------------------------------|

	(2:00)
G|-----------------------------------------------------------------------------|
D|-----------------------------------------------------------------------------|
A|----5~--3~\7~--5~--3~\10~--5~--3~\7~--5~--3~\10—5~--3~\7---------------------|
D|-----------------------------------------------------------------------------|


	(2:26)
G|----------------------------------------------------------------------------|
D|----------------------------------------------------------------------------|
A|----------------------------------------------------------------------------|
D|------33333-22222-----------------------------------------------------------|


	(2:40 until end)
G|----------------------------------------------------------------------------|
D|-----1010101010101010101010101010-------------------------------------------|
A|----------------------------------------------------------------------------|
D|----------------------------------------------------------------------------|

| / Slide up
| \ Slide down
| H hammer-on
| P pull-off
| ~ Vibrato
| + Harmonic
| X Mute note
=============================================================
Suggest correction
Creating personal tab
Creating personal tab
You can edit any tab online and save it as your Personal.

You can edit, replace or remove any tab part or add personal notes – all changes will be seen only by you.

Personal tabs can be accessed anytime from any device, even offline.
Learn more »
Give kudos to tab author, rate the tab!
1 2 3 4 5
comments
print report bad tab
2 comments total.
+1 reply
mattyboy77 51 Aug 04, 2008 07:14 PM

everything is either flat or tuned a whole step down

0 reply
darkdream666 50 Apr 16, 2009 06:39 PM

the end doesnt seem right to me (the very last riff) rest looks good though besides wrong tuning :P

guest
You may want to rate the tab now too:
select rating
Wanna post a correction for this tab? Suggest correction