Oops, an error
Loading. Please wait.

Synthetic Sun tab

133 views 12 this week
no commentswrite comment
1 2 3 4 5
3 more votes to show rating
add to favorites
×
Save as Personal and add changes to this tab that will be seen only by you. Learn more ›
×
You can save this tab as Personal to edit and correct it or add notes. All changes will be seen only by you. Learn more »
launch autoscroll
font size
0
reset
how to read this tab
guitar tuner
edit
Autoscroll
slow
fast
+/-
esc
set tempo
stop
About this tab version
Full song, multiple guitar tracks. Was this info helpful? Yes No
------------------------------
  Synthetic Sun – Norma Jean
------------------------------
Tabbed by: millarso (Jake Miller)
E-mail: millarso2.0@gmail.com

Tuning: Drop A (might want to try out a baritone guitar)

Guitar 1: Left Stereo
Guitar 2: Right Stereo

[SECTION 1]
Both Guitars
B |----------------------------------|
F#|----------------------------------|
D |----------------------------------|
A |------------------7-9------5-5-7\-|
E |-2----------------5-7(x24)-5-5-7\-|
A |-2-------------------------5-5-7\-|
  |
Extra Guitar
B |----------15----------15----------15----------15-|
F#|----15-17-------15-17-------15-17-------15-17----|
D |-16~---16~---16~---16~---16~---16~---16~---16~---|
A |-------------------------------------------------|x2
E |-------------------------------------------------|
A |-------------------------------------------------|

Both Guitars
B |---------------------------------------------------------------------------------------------|
F#|---------------------------------------------------------------------------------------------|
D |---------------------------------------------------------------------------------------------|
A |-2-2-0-2--0-2-2--0-2-2-0-2-5\--3-3-3-3-3-3-3-3-3-3-3-3-5-5-7\--2-2-2-2-2-2-5-1-1-1-1-1-1-1-1-|
E |-2-2-0-2--0-2-2--0-2-2-0-2-5\--3-3-3-3-3-3-3-3-3-3-3-3-5-5-7\--2-2-2-2-2-2-5-1-1-1-1-1-1-1-1-|
A |-2-2-0-2--0-2-2--0-2-2-0-2-5\--3-3-3-3-3-3-3-3-3-3-3-3-5-5-7\--2-2-2-2-2-2-5-1-1-1-1-1-1-1-1-|
  |
Extra Guitar
B |---------15-|  |----------15-|  |---------15-|
F#|-0-15-19----|  |----15-17----|  |-0-15-19----|
D |------------|  |-16~---16~---|  |------------|
A |------------|x4|-------------|x4|------------|x4
E |------------|  |-------------|  |------------|
A |------------|  |-------------|  |------------|

Both Guitars
B |-----------------|
F#|-----------------|
D |-----------------|
A |-7-9------5-5-7\-|
E |-5-7(x24)-5-5-7\-|
A |----------5-5-7\-|
  |
Extra Guitar
B |----------15-----------15-------------15----------15-|
F#|----15-17--------15-17----------15-17-------15-17----|
D |-16~---16~----16~---16~------16~---16~---16~---16~---|
A |-----------------------------------------------------|
E |-----------------------------------------------------|
A |-----------------------------------------------------|

Both Guitars
B |---------------------------------------------------------------------------------------------|
F#|---------------------------------------------------------------------------------------------|
D |---------------------------------------------------------------------------------------------|
A |-2-2-0-2--0-2-2--0-2-2-0-2-5\--3-3-3-3-3-3-3-3-3-3-3-3-5-5-7\--2-2-2-2-2-2-5-1-1-1-1-1-1-1-1-|
E |-2-2-0-2--0-2-2--0-2-2-0-2-5\--3-3-3-3-3-3-3-3-3-3-3-3-5-5-7\--2-2-2-2-2-2-5-1-1-1-1-1-1-1-1-|
A |-2-2-0-2--0-2-2--0-2-2-0-2-5\--3-3-3-3-3-3-3-3-3-3-3-3-5-5-7\--2-2-2-2-2-2-5-1-1-1-1-1-1-1-1-|
  |
Extra Guitar
B |---------15-|  |----------15-|  |---------15-|
F#|-0-15-19----|  |----15-17----|  |-0-15-19----|
D |------------|  |-16~---16~---|  |------------|
A |------------|x4|-------------|x4|------------|x4
E |------------|  |-------------|  |------------|
A |------------|  |-------------|  |------------|

[SECTION 2]
Both Guitars
B |---------------------------------0------------------------------------0-----------------|
F#|---------------3h5p3p0-----------0-------3h5p3p0----------------------0-----------------|
D |-----------------------2p0-------0---------------2p0------------------0-----------------|
A |-2----------2--------------2h5---1--1-2--------------2h5-2------------1--1-2----------2-|
E |-x--00000000x--------------------x--x-x------------------x--00000000--x--x-x--00000000x-|
A |-2--000000002------------------1-1--1-2------------------2--000000001-1--1-2--000000002-|
       ........                   .                            .........         ........

Guitar 1
B |-------------------0--------------------------------------0-5---0----------------------|
F#|-3h5p3p0-----------0-------3h5p3p0------------3h5-3h5-3h5-5-5-3s8----------------7b8r7-|
D |---------2p0-------0---------------2p0-------------------------------------------7-----|
A |-------------2h5---1--1-2--------------2h5-2-----------------------2-2-2--0-0-0--5-----|
E |-------------------x--x-x------------------x-----------------------2-2-2--0-0-0--5-----|
A |-----------------1-1--1-2------------------2-----------------------2-2-2--0-0-0--5-----|
  |                 .
Guitar 2
B |-------------------0-------------------------------0---0-0---0-0-----------------------|
F#|-3h5p3p0-----------0-------3h5p3p0-----------------3s5---3s5---5\----------------7b8r7-|
D |---------2p0-------0---------------2p0-------------------------------------------7-----|
A |-------------2h5---1--1-2--------------2h5-2-----------------------2-2-2--0-0-0--5-----|
E |-------------------x--x-x------------------x-----------------------2-2-2--0-0-0--5-----|
A |-----------------1-1--1-2------------------2-----------------------2-2-2--0-0-0--5-----|
                    .

Guitar 1
B |-------------0-5---0----------------------|
F#|-3h5-3h5-3h5-5-5-3s8----------------7b8r7-|
D |------------------------------------7-----|
A |----------------------2-2-2--0-0-0--5-----|x2
E |----------------------2-2-2--0-0-0--5-----|
A |----------------------2-2-2--0-0-0--5-----|
  |
Guitar 2
B |------0---0-0---0-0-----------------------|
F#|------3s5---3s5---5\----------------7b8r7-|
D |------------------------------------7-----|
A |----------------------2-2-2--0-0-0--5-----|x2
E |----------------------2-2-2--0-0-0--5-----|
A |----------------------2-2-2--0-0-0--5-----|

Guitar 1
B |-------------0-5-0------------|
F#|-3h5-3h5-3h5-5-5-3\\\---------|
D |------------------------------|
A |------------------------------|
E |------------------------------|
A |------------------------------|
  |
Guitar 2
B |------0---0-0---0-0-----------|
F#|------3s5---3s5---5\----------|
D |------------------------------|
A |----------------------5-5-7\--|
E |----------------------5-5-7\--|
A |----------------------5-5-7\--|

[SECTION 3]
Guitar 1
B |-/17-------------------------15-15-15-15-15-15-15-15-15-15-0-0-0-0-0-3-0-3-0-0-0-0-0-0-----3-|
F#|-/15(x16}-----------17-17-17-17-17-17-17-17-17-17-17-17-17-5-5-5-5-5-5-5-5-4-4-4-4-4-0-0-0-0-|
D |----------/16-16-16-16-16-16-16-16-16-16-16-16-16-16-16-16-----------------------------2-0-0-|
A |---------------------------------------------------------------------------------------------|
E |---------------------------------------------------------------------------------------------|
A |---------------------------------------------------------------------------------------------|
  |
Guitar 2
B |---------------------------------------------------------------------------------------------|
F#|---------------------------------------------------------------------------------------------|
D |---------------------------------------------------------------------------------------------|
A |-2-2-0-2--0-2-2--0-2-2-0-2-5\--3-3-3-3-3-3-3-3-3-3-3-3-5-5-7\--2-2-2-2-2-2-5-1-1-1-1-1-1-1-1-|
E |-2-2-0-2--0-2-2--0-2-2-0-2-5\--3-3-3-3-3-3-3-3-3-3-3-3-5-5-7\--2-2-2-2-2-2-5-1-1-1-1-1-1-1-1-|
A |-2-2-0-2--0-2-2--0-2-2-0-2-5\--3-3-3-3-3-3-3-3-3-3-3-3-5-5-7\--2-2-2-2-2-2-5-1-1-1-1-1-1-1-1-|

Guitar 2
B |-------------------------------|
F#|-------------------------------|
D |-------------------------------|
A |-5-5-5-5-5-5-5-5-5-5-5-5-5-5-5-|
E |-7-7-7-7-7-7-7-7-7-7-7-7-7-7-7-|
A |-------------------------------|
    . . . . . . . . . . . . . . .

[SECTION 4]
Guitar 1
B |---------3-----------3------------3-----------3-----------------------------------|
F#|---------0-----------0------------0-----------0-----------------------------------|
D |---------0-----------0------------0-----------0-----4-4-4-4-4-4-4s8-8-8-8-8-8-8-8-|
A |-2-5--2--2--2--5--2--2--2-2-5--2--2--2--5--2--2--2--x-x-x-x-x-x-x---x-x-x-x-x-x-x-|x2
E |-x-x--x--x--x--x--x--x--x-x-x--x--x--x--x--x--x--x--2-2-2-2-2-2-2s6-6-6-6-6-6-6-6-|
A |-2-5--2--2--2--5--2--2--2-2-5--2--2--2--5--2--2--2--------------------------------|
  |
Guitar 2
B |---------3-----------3------------3-----------3------------------------------------|
F#|---------0-----------0------------0-----------0------------------------------------|
D |---------0-----------0------------0-----------0------------------------------------|
A |-2-5--2--2--2--5--2--2--2-2-5--2--2--2--5--2--2--2--7-5-5-9-5-5-2-4-4-1010-7-7-9-9-|x2
E |-x-x--x--x--x--x--x--x--x-x-x--x--x--x--x--x--x--x--x-x-x-x-x-x-x-x-x--x-x-x-x-x-x-|
A |-2-5--2--2--2--5--2--2--2-2-5--2--2--2--5--2--2--2--7-5-5-9-5-5-2-4-4-1010-7-7-9-9-|

[SECTION 5]
Guitar 1
B |-----------------------------------------0------------------------0----|
F#|-----------------------------------------0------------------------0----|
D |-----------------------------------------0------------------------0----|
A |-3--3--3--3--3--3--3--3--2-------2-------1--1-2----------2--------1--1-|
E |-3--3--3--3--3--3--3--3--x-------x-------x--x-x--00000000x--------x--x-|
A |-3--3--3--3--3--3--3--3--2-------2-----1-1--1-2--000000002------1-1--1-|
  |                                       .                        .
Guitar 2
B |-----------------------------------------0------------------------0----|
F#|-----------------------------------------0------------------------0----|
D |-----------------------------------------0------------------------0----|
A |-3--3--3--3--3--3--3--3--2-------2-------1--1-2----------2--------1--1-|
E |-3--3--3--3--3--3--3--3--x-------x-------x--x-x----------x--------x--x-|
A |-3--3--3--3--3--3--3--3--2-------2-----1-1--1-2----------2------1-1--1-|
                                          .                        .


NOTE: This next part is a little strange to tab. I'm using those slide marks (\\\)
      to represent the short pick slide sounds in the following riffs and will do
      so for the rest of the song. You'll have to experiment with where to slide
      your pick and which strings on your particular guitar. Mine sounded best over
      the pickups

Guitar 1
B |---------------------------0------------------------------0------------------------------0----|
F#|---------------------------0------------------------------0------------------------------0----|
D |---------------------------0------------------------------0------------------------------0----|
A |-2----------2--------------1--1-2----------2--------------1--1-2-------------------------1--1-|
E |-x----------x--------------x--x-x----------x--------------x--x-x-------------------------x--x-|
A |-2----------2------------1-1--1-2----------2------------1-1--1-2-----------------------1-1--1-|
  |                         .                              .                              .
Guitar 2
B |---------------------------0------------------------------0------------------------------0----|
F#|---------------------------0------------------------------0------------------------------0----|
D |---------------------------0------------------------------0------------------------------0----|
A |-2----------2--------------1--1-2----------2--------------1--1-2----------2--------------1--1-|
E |-x--0-0-0-0-x--///--///----x--x-x--0-0-0-0-x--///--///----x--x-x--0-0-0-0-x--///--///----x--x-|
A |-2--0-0-0-0-2--///--///--1-1--1-2--0-0-0-0-2--///--///--1-1--1-2--0-0-0-0-2--///--///--1-1--1-|
       . . . .              .         . . . .              .         . . . .              .     

Both Guitars
B |---------------------------0------------------------------0------------------------------0----|
F#|---------------------------0------------------------------0------------------------------0----|
D |---------------------------0------------------------------0------------------------------0----|
A |-2----------2--------------1--1-2----------2--------------1--1-2----------2--------------1--1-|
E |-x--0-0-0-0-x--///--///----x--x-x--0-0-0-0-x--///--///----x--x-x--0-0-0-0-x--///--///----x--x-|
A |-2--0-0-0-0-2--///--///--1-1--1-2--0-0-0-0-2--///--///--1-1--1-2--0-0-0-0-2--///--///--1-1--1-|
       . . . .              .         . . . .              .         . . . .              .    
 
B |---------------------------0~-|
F#|---------------------------0~-|
D |---------------------------0~-|
A |-2----------2--------------1~-|
E |-x--0-0-0-0-x--///--///----x--|
A |-2--0-0-0-0-2--///--///--1-1~-|
       . . . .              .  

[SECTION 4]
Guitar 1
B |---------3-----------3------------3-----------3-----------------------------------|
F#|---------0-----------0------------0-----------0-----------------------------------|
D |---------0-----------0------------0-----------0-----4-4-4-4-4-4-4s8-8-8-8-8-8-8-8-|
A |-2-5--2--2--2--5--2--2--2-2-5--2--2--2--5--2--2--2--x-x-x-x-x-x-x---x-x-x-x-x-x-x-|x2
E |-x-x--x--x--x--x--x--x--x-x-x--x--x--x--x--x--x--x--2-2-2-2-2-2-2s6-6-6-6-6-6-6-6-|
A |-2-5--2--2--2--5--2--2--2-2-5--2--2--2--5--2--2--2--------------------------------|
  |
Guitar 2
B |---------3-----------3------------3-----------3------------------------------------|
F#|---------0-----------0------------0-----------0------------------------------------|
D |---------0-----------0------------0-----------0------------------------------------|
A |-2-5--2--2--2--5--2--2--2-2-5--2--2--2--5--2--2--2--7-5-5-9-5-5-2-4-4-1010-7-7-9-9-|x2
E |-x-x--x--x--x--x--x--x--x-x-x--x--x--x--x--x--x--x--x-x-x-x-x-x-x-x-x--x-x-x-x-x-x-|
A |-2-5--2--2--2--5--2--2--2-2-5--2--2--2--5--2--2--2--7-5-5-9-5-5-2-4-4-1010-7-7-9-9-|

[SECTION 6]
Guitar 1
B |----------15----------15----------15----------15-|
F#|----15-17-------15-17-------15-17-------15-17----|
D |-16~---16~---16~---16~---16~---16~---16~---16~---|
A |-------------------------------------------------|x2
E |-------------------------------------------------|
A |-------------------------------------------------|
||
Guitar 2
B |--0--0--0--0--0--0--0--0--0--0--0--0--0--0--0--0-|
F#|-22-20-22-24-22-20-22-24-22-20-22-24-22-20-22-24-|
D |-------------------------------------------------|
A |-------------------------------------------------|x2
E |-------------------------------------------------|
A |-------------------------------------------------|

Guitar 1
B |----------15----------15----------15----------15-|
F#|----15-17-------15-17-------15-17-------15-17----|
D |-16~---16~---16~---16~---16~---16~---16~---16~---|
A |-------------------------------------------------|
E |-------------------------------------------------|
A |-------------------------------------------------|
||
Guitar 2
B |--0--0--0--0--0--0--0--0--0--0--0--0----------|
F#|-22-20-22-24-22-20-22-24-22-20-22-24----------|
D |----------------------------------------------|
A |---------------------------------------5-5-7\-|
E |---------------------------------------5-5-7\-|
A |---------------------------------------5-5-7\-|

[SECTION 1B]
Both Guitars
B |---------------------------------------------------------------------------------------------|
F#|---------------------------------------------------------------------------------------------|
D |---------------------------------------------------------------------------------------------|
A |-2-2-0-2--0-2-2--0-2-2-0-2-5\--3-3-3-3-3-3-3-3-3-3-3-3-5-5-7\--2-2-2-2-2-2-5-1-1-1-1-1-1-1-1-|
E |-2-2-0-2--0-2-2--0-2-2-0-2-5\--3-3-3-3-3-3-3-3-3-3-3-3-5-5-7\--2-2-2-2-2-2-5-1-1-1-1-1-1-1-1-|
A |-2-2-0-2--0-2-2--0-2-2-0-2-5\--3-3-3-3-3-3-3-3-3-3-3-3-5-5-7\--2-2-2-2-2-2-5-1-1-1-1-1-1-1-1-|
  |
Extra Guitar
B |---------15-|  |----------15-|  |---------15-|
F#|-0-15-19----|  |----15-17----|  |-0-15-19----|
D |------------|  |-16~---16~---|  |------------|
A |------------|x4|-------------|x4|------------|x4
E |------------|  |-------------|  |------------|
A |------------|  |-------------|  |------------|

[SECTION 7]
Guitar 1 (clean)
B |---------------------------15-15-15-15-15-15-15-------------------15-15-15-17-15-15-15-15-15-|
F#|---------15-15-15-17-17-17-17-17-17-17-17-17-17-15-15-15-19-19-19----------------------------|
D |16-16-16-16-16-16-16-16-16-16-16-16-16-16-16-16----------------------------------------------|
A |---------------------------------------------------------------------------------------------|
E |---------------------------------------------------------------------------------------------|
A |---------------------------------------------------------------------------------------------|
||
Guitar 2 (clean)
B |---------------------------------------------------------------------------|
F#|---------------------------------------------------------------------------|
D |-9-9-9-9-9-9-9-9-9-9-9-9-9-9-9s12-8-8-8-8-8-8-8-8-12-12-12-12-14-14-14-14\-|
A |---------------------------------------------------------------------------|
E |---------------------------------------------------------------------------|
A |---------------------------------------------------------------------------|

Guitar 1 (clean)
B |---------------------------15-15-15-15-15-15-15-------------------15-15-15-17-15-15-15-17-15-|
F#|---------15-15-15-17-17-17-17-17-17-17-17-17-17-15-15-15-19-19-19----------------------------|
D |16-16-16-16-16-16-16-16-16-16-16-16-16-16-16-16----------------------------------------------|
A |---------------------------------------------------------------------------------------------|
E |---------------------------------------------------------------------------------------------|
A |---------------------------------------------------------------------------------------------|
||
Guitar 2 (clean)
B |----------------------------------------------------------------------|
F#|----------------------------------------------------------------------|
D |-7-7-7-7-7-7-7-7-7-7-7-7-7-7s12-12-12s9-9-9-9-9-9-9-9-9-8-8-8-8-8-8-8-|
A |----------------------------------------------------------------------|
E |----------------------------------------------------------------------|
A |----------------------------------------------------------------------|

Guitar 1 (clean)
B |---------------------------15-15-15-15-15-15-15-------------------15-15-15-17-15-15-15-17-15-|
F#|---------15-15-15-17-17-17-17-17-17-17-17-17-17-15-15-15-19-19-19----------------------------|
D |16-16-16-16-16-16-16-16-16-16-16-16-16-16-16-16----------------------------------------------|
A |---------------------------------------------------------------------------------------------|
E |---------------------------------------------------------------------------------------------|
A |---------------------------------------------------------------------------------------------|
||
Guitar 2 (clean)
B |---------------------------------------------------------------------------|
F#|---------------------------------------------------------------------------|
D |-9-9-9-9-9-9-9-9-9-9-9-9-9-9-9s12-8-8-8-8-8-8-8-8-12-12-12-12-14-14-14-14\-|
A |---------------------------------------------------------------------------|
E |---------------------------------------------------------------------------|
A |---------------------------------------------------------------------------|

Guitar 1 (clean)
B |---------------------------15-15-15-15-15-15-15-------------------15-15-15-17-15-15-15-17-15-|
F#|---------15-15-15-17-17-17-17-17-17-17-17-17-17-15-15-15-19-19-19----------------------------|
D |16-16-16-16-16-16-16-16-16-16-16-16-16-16-16-16----------------------------------------------|
A |---------------------------------------------------------------------------------------------|
E |---------------------------------------------------------------------------------------------|
A |---------------------------------------------------------------------------------------------|
||
Guitar 2 (clean)
B |----------------------------------------------------------------------|
F#|----------------------------------------------------------------------|
D |-7-7-7-7-7-7-7-7-7-7-7-7-7-7s12-12-12s9-9-9-9-9-9-9-9-9-8-8-8-8-8-8-8-|
A |----------------------------------------------------------------------|
E |----------------------------------------------------------------------|
A |----------------------------------------------------------------------|

[SECTION 8]
Guitar 1
B |-------------------------------------------------------------------|
F#|-------------------------------------------------------------------|
D |-------------------------------------------------------------------|
A |-0-2-2-2-2-2-2-2-2-2-2-2-2-2-2-2-2-1-1-1-1-1-1-1-1-1-1-1-1-1-1-1-1-|
E |-0-2-2-2-2-2-2-2-2-2-2-2-2-2-2-2-2-1-1-1-1-1-1-1-1-1-1-1-1-1-1-1-1-|
A |-0-2-2-2-2-2-2-2-2-2-2-2-2-2-2-2-2-1-1-1-1-1-1-1-1-1-1-1-1-1-1-1-1-|
||
Guitar 2
B |---------------------------15-15-15-15-15-15-15-------------------15-15-15-17-15-15-15-17-15-|
F#|---------15-15-15-17-17-17-17-17-17-17-17-17-17-15-15-15-19-19-19----------------------------|
D |16-16-16-16-16-16-16-16-16-16-16-16-16-16-16-16----------------------------------------------|
A |---------------------------------------------------------------------------------------------|
E |---------------------------------------------------------------------------------------------|
A |---------------------------------------------------------------------------------------------|

Guitar 1
B |-----------------------------------------------------------------|
F#|-----------------------------------------------------------------|
D |-----------------------------------------------------------------|
A |-0-0-0-0-0-0-0-0-0-0-0-0-0-0-5-5-5-2-2-2-2-2-2-2-2-2-2-2-2-2-2-2-|
E |-0-0-0-0-0-0-0-0-0-0-0-0-0-0-5-5-5-2-2-2-2-2-2-2-2-2-2-2-2-2-2-2-|
A |-0-0-0-0-0-0-0-0-0-0-0-0-0-0-5-5-5-2-2-2-2-2-2-2-2-2-2-2-2-2-2-2-|
||
Guitar 2
B |---------------------------15-15-15-15-15-15-15-------------------15-15-15-17-15-15-15-17-15-|
F#|---------15-15-15-17-17-17-17-17-17-17-17-17-17-15-15-15-19-19-19----------------------------|
D |16-16-16-16-16-16-16-16-16-16-16-16-16-16-16-16----------------------------------------------|
A |---------------------------------------------------------------------------------------------|
E |---------------------------------------------------------------------------------------------|
A |---------------------------------------------------------------------------------------------|

Guitar 1
B |-------------------------------------------------------------------|
F#|-------------------------------------------------------------------|
D |-------------------------------------------------------------------|
A |-0-2-2-2-2-2-2-2-2-2-2-2-2-2-2-2-2-1-1-1-1-1-1-1-1-1-1-1-1-1-1-1-1-|
E |-0-2-2-2-2-2-2-2-2-2-2-2-2-2-2-2-2-1-1-1-1-1-1-1-1-1-1-1-1-1-1-1-1-|
A |-0-2-2-2-2-2-2-2-2-2-2-2-2-2-2-2-2-1-1-1-1-1-1-1-1-1-1-1-1-1-1-1-1-|
||
Guitar 2
B |---------------------------15-15-15-15-15-15-15-------------------15-15-15-17-15-15-15-17-15-|
F#|---------15-15-15-17-17-17-17-17-17-17-17-17-17-15-15-15-19-19-19----------------------------|
D |16-16-16-16-16-16-16-16-16-16-16-16-16-16-16-16----------------------------------------------|
A |---------------------------------------------------------------------------------------------|
E |---------------------------------------------------------------------------------------------|
A |---------------------------------------------------------------------------------------------|

Guitar 1
B |--------------------------------------------------------------------|
F#|--------------------------------------------------------------------|
D |--------------------------------------------------------------------|
A |-0-0-0-0-0-0-0-0-0-0-0-0-0-0-5-5-5-2-2-2-2-2-2-2-2-2-2-2-2-2-2-2-2~-|
E |-0-0-0-0-0-0-0-0-0-0-0-0-0-0-5-5-5-2-2-2-2-2-2-2-2-2-2-2-2-2-2-2-2~-|
A |-0-0-0-0-0-0-0-0-0-0-0-0-0-0-5-5-5-2-2-2-2-2-2-2-2-2-2-2-2-2-2-2-2~-|
||
Guitar 2
B |---------------------------15-15-15-15-15-15-15-------------------15-15-15-17-15-15-15-15-15-|
F#|---------15-15-15-17-17-17-17-17-17-17-17-17-17-15-15-15-19-19-19----------------------------|
D |16-16-16-16-16-16-16-16-16-16-16-16-16-16-16-16----------------------------------------------|
A |---------------------------------------------------------------------------------------------|
E |---------------------------------------------------------------------------------------------|
A |---------------------------------------------------------------------------------------------|


************************************

| .   palm mute
| /   slide up
| \   slide down
| h   hammer-on
| p   pull-off
| x   Mute note
| s   Slide between notes
| /// Short pick slide
| ~   let note ring

************************************

            
            
Suggest correction
Creating personal tab
Creating personal tab
You can edit any tab online and save it as your Personal.

You can edit, replace or remove any tab part or add personal notes – all changes will be seen only by you.

Personal tabs can be accessed anytime from any device, even offline.
Learn more »
Give kudos to tab author, rate the tab!
1 2 3 4 5
comments
print report bad tab
guest
You may want to rate the tab now too:
select rating
Wanna post a correction for this tab? Suggest correction