Oops, an error
Loading. Please wait.

The Lash Whistled Like A Singing Wind Tab

224 views 1 this week
no commentswrite comment
1 2 3 4 5
please rate
add to favorites
launch autoscroll
font size
0
reset
how to read this tab
guitar tuner
Tab Pro tools
  • play this tab
  • loop segment
  • change instrument
  • show fretboard
  • metronome
×
Best way to learn
"The Lash Whistled Like A Singing Wind"
Autoscroll
slow
fast
+/-
esc
set tempo
stop
Contributor
Difficulty
Tuning
intermediate
B F# B E G# C#
------------------------------------------------------
  The Lash Whistled Like A Singing Wind – Norma Jean
------------------------------------------------------
Tabbed by: millarso (Jake Miller)
E-mail: millarso2.0@gmail.com

Tuning: Drop B

Guitar 1: Left Channel
Guitar 2: Right Channel

INTRO
Both Guitars
C#|--------------------------------------|
G#|--------------------------------------|
E |-7p0-----------------------6-----6----|
B |-----8\----6--3---4--3-----x-----x--4-|
F#|-----8\--0-x--x---x--x---0-4-0-0-4--4-|
B |-----8\--0-6--3---4--3---0---0-0----4-|
            .               .   . .

NOTE: Make sure to listen to the track carefully because there are some
strange rhythm transitions between certain riffs

SECTION 1
Both Guitars
C#|-------------------------------------------------------|
G#|-------------------------------------------------------|
E |-8-------------------7-7-7-----------------------------|
B |-x---7-7-7-----------x-x-x---6----5--3---3--2--3-2--3--|x2
F#|-6---7-7-7-----------5-5-5---6--0-5--3-0-x--x--x-x--x--|
B |-----7-7-7--11p0-8p0---------6--0-5--3-0-3--2--3-2--3--|
                                   .      .
Guitar 1                                      Ending   1.  2.
C#|---------------------------------------------------|---|-------------------|
G#|---------------------------------------------------|---|-------------------|
E |-8------------------111111-------------------------|---|-------------------|
B |-x---7-7-7-----------x-x-x---6----5--3---3--2--3-2-|-3-|-------------------|x2
F#|-6---7-7-7-----------9-9-9---6--0-5--3-0-x--x--x-x-|-x-|-(noise/harmonic?)-|
B |-----7-7-7--11p0-8p0---------6--0-5--3-0-3--2--3-2-|-3-|-------------------|
||                                   .      .
Guitar 2                                      Ending   1.  2.
C#|---------------------------------------------------|---|-------------------|
G#|---------------------------------------------------|---|-------------------|
E |-8-------------------7-7-7-------------------------|---|-------------------|
B |-x---7-7-7-----------x-x-x---6----5--3---3--2--3-2-|-3-|-------------------|x2
F#|-6---7-7-7-----------5-5-5---6--0-5--3-0-x--x--x-x-|-x-|-(noise/harmonic?)-|
B |-----7-7-7--11p0-8p0---------6--0-5--3-0-3--2--3-2-|-3-|-------------------|
                                   .      .

TRANSITION 1
Both Guitars
C#|--------------------|
G#|--------------------|
E |--------------------|
B |-------6--3---4--3--|
F#|-----0-x--x---x--x--|
B |-9\6-0-6--3---4--3--|
        .

SECTION 2
Both Guitars
C#|----------------------------------------------------------------|
G#|----------------------------------------------------------------|
E |---7-----7---------7-----7---------7-----7---------7-----7------|
B |---x-----x---------x-----x---------x-----x---------x-----x-3-4\-|
F#|-0-5-0-0-5-0-0-0-0-5-0-0-5-0-0-0-0-5-0-0-5-0-0-0-0-5-0-0-5-x-x--|
B |-0---0-0---0-0-0-0---0-0---0-0-0-0---0-0---0-0-0-0---0-0---3-4\-|
    .   . .   . . . .   . .   . . . .   . .   . . . .   . .

SECTION 3
Both Guitars
C#|----------------------------------------------------|
G#|----------------------------------------------------|
E |----------------------------------------------------|
B |---3-----3-----3-----3-----3-----3-----3-----3---2--|
F#|-0-x-0-0-x---0-x-0-0-x---0-x-0-0-x---0-x-0-0-x-0-x--|
B |-0-3-0-0-3---0-3-0-0-3---0-3-0-0-3---0-3-0-0-3-0-2--|
    .   . .     .   . .     .   . .     .   . .   .

Guitar 1
C#|----------------------------------------------------|
G#|----------------------------------------------------|
E |----------------------------------------------------|
B |---3-----3-----3-----3-----3-----3-----3-----3---2--|
F#|-0-x-0-0-x---0-x-0-0-x---0-x-0-0-x---0-x-0-0-x-0-x--|
B |-0-3-0-0-3---0-3-0-0-3---0-3-0-0-3---0-3-0-0-3-0-2--|
||  .   . .     .   . .     .   . .     .   . .   .
||
Guitar 2
C#|----------------------------------------------------|
G#|----------------------------------------------------|
E |----------------------------------------------------|
B |---6-----6-----6-----6-----6-----6-----6-----6---5--|
F#|-0-x-0-0-x---0-x-0-0-x---0-x-0-0-x---0-x-0-0-x-0-x--|
B |-0-6-0-0-6---0-6-0-0-6---0-6-0-0-6---0-6-0-0-6-0-5--|
    .   . .     .   . .     .   . .     .   . .   .

TRANSITION 2
C#|--------------------------------|
G#|--------------------------------|
E |---7-------7-------7-------7----|
B |---x-------x-------x-------x----|
F#|---5-------5-------5-------5----|
B |-0---6\--0---6\--0---6\--0---6\-|

SECTION 4
Guitar 1 only
C#|-------------------------------------|
G#|-------------------------------------|
E |---7-------7/13--------8---------7---|
B |---x-------x--x--------x---------x---|
F#|---5-------5/11--------6-------0-5---|
B |-0---6\--0------12\--0---7\--0-----6-|

Both Guitars
C#|-------------------------------------|
G#|-------------------------------------|
E |---7-------7/13--------8---------7---|
B |---x-------x--x--------x---------x---|x4 (skip the last note on last repeat)
F#|---5-------5/11--------6-------0-5---|
B |-0---6\--0------12\--0---7\--0-----6-|

After a pause...
SECTION 5 (way slower)
C#|----------------------------------------------------|
G#|----------------------------------------------------|
E |----7-----------7/13------------8-----------7-------|
B |-0--x--6\----0--x--x--12\----0--x--7\----0--x--6\---|
F#|-0--5--6\----0--5/11--12\----0--6--7\----0--5--6\---|
B |-0-----6\----0--------12\----0-----7\----0-----6\---|

Awesome song. Short, but sweet.
It took me a long time to pick everything out because
this is fast and ridiculously loud, but this should be
good now.
Please rate & comment.
Thanks,
millarso

************************************

| /   slide up
| \   slide down
| h   hammer-on
| p   pull-off
| ~   vibrato
| +   harmonic
| x   Mute note
| b   Bend
| pb  Pre-bend
| br  Bend release
| pbr Pre-bend release
| brb Bend release bend

************************************
comments
We did not receive enough feedback on this tab! Please rate:
print report bad tab
1 2 3 4 5
I want to post or [tab]
guest
You may want to rate the tab now too:
select rating
Please do not post tabs as comments. Select "correction" instead!