Oops, an error
Loading. Please wait.

Home chords

by Norman
49 views 1 this week
no commentswrite comment
1 2 3 4 5
x 6
add to favorites
×
Save as Personal and add changes to this tab that will be seen only by you. Learn more ›
×
You can save this tab as Personal to edit and correct it or add notes. All changes will be seen only by you. Learn more »
launch autoscroll
font size
0
reset
transpose
0
reset
display chords
guitar tuner
edit
Autoscroll
slow
fast
+/-
esc
set tempo
stop
Strumming
There is no strumming pattern for this song yet. and get +5 IQ
SONG:   HOME
ARTIST: NORMAN
TAB BY: DON CZARSKI
EMAIL:  GUITARZAN7@HOTMAIL.COM


NOTE: The picking pattern in the INTRO is
      used throughout the song. PLease keep
      that in mind while playing. Feel free
      to improvise in places as well. 

                    HOME
                   NORMAN


INTRO:

   Bm
E --------------2-------------
B -------3--------3----3------
G -----4---4--------4----4----
D ---4-------4-------------4--
A -2--------------------------
E ----------------------------

   Bm
E --------------2-------------
B -------3--------3----3------
G -----4---4--------4----4----
D ---4-------4-------------4--
A -2--------------------------
E ----------------------------

   Bm
E --------------2-------------
B -------3--------3----3------
G -----4---4--------4----4----
D ---4-------4-------------4--
A -2--------------------------
E ----------------------------

   Bm
E --------------2-------------
B -------3--------3----3------
G -----4---4--------4----4----
D ---4-------4-------------4--
A -2--------------------------
E ----------------------------


VERSE:
Bm
I wake up
        A
In the morning

          A
       E --------------0-------------
       B -------2--------2----2------
       G -----2---2--------2----2----
       D ---2-------2-------------2--
       A -0--------------------------
       E ----------------------------

      Bm   Bm
On my own


VERSE:
        Bm
As I'm dreaming
          A
Reaching out
                  Bm   Bm
Reaching for the phone


VERSE:
   Bm
I listen
             A
To the dial tone
             Bm
Listen as it dro-ah-ah-ah-ones


CHORUS:
          G   D  
But it's not so bad
          G  D   A
No, it's not so ba-a-a-ad

A
Ba-ad
D        Bm  Bm  Bm
Ba-a-a-a-ad
D        Bm  Bm  Bm
Ba-a-a-a-ad
D        Bm    F#
Ba-a-a-a-aaaaa-a-a-ad
       Bm  Bm  Bm
Na-a-a-ad


VERSE:
     Bm
I'm reaching
         A
For the door
               Bm   Bm
On the second floor

               Bm
And if you're looking for me
         A
Chances are
                             Bm   Bm
You'll find me at the local store


VERSE:
       Bm
People say
             A
My town's a bore
                                Bm  Bm
But I'll say there's something more


CHORUS:
             G   D
'Cause it's not so bad
          G     A
No, it's not so ba-a-a-ad

A
Ba-ad
D        Bm  Bm  Bm
Ba-a-a-a-ad
D        Bm  Bm  Bm
Ba-a-a-a-ad
D        Bm    F#
Ba-a-a-a-aaaaa-a-a-ad
       Bm  Bm  Bm
Na-a-a-ad


INSTRUMENTAL/SOLO:
F#  Bm  Bm  Bm  
F#  Bm  Bm  Bm
F#  Bm  Bm  Bm
F#  Bm  Bm  


BREAK:
Bm
I can trust
 A
On my friends
                  Bm 
On the flip of a dime

E -----2-------
B -3-----3-----
G ---4-----4---
D -------------
A -------------
E -------------

        Bm
'Cause they are always there for me
  F#
Even when
            Bm  Bm  Bm
I'm not on time


VERSE:
             Bm
No, I would never 
                        A
Dare to call any other place my home
       Bm    Bm
No, no other 

           Bm
'Cause my home is my heart my soul
       A
It's close to me
                    Bm     Bm
As close as my own brother


CHORUS:
          G   D  
And it's not so bad
          G     A
No, it's not so ba-a-a-ad

A
Ba-ad
D        Bm  Bm  Bm
Ba-a-a-a-ad
D        Bm  Bm  Bm
Ba-a-a-a-ad
D        Bm    F#
Ba-a-a-a-aaaaa-a-a-ad
       Bm  Bm  
Na-a-a-ad


OUTRO:
           D              A      Bm
Don't you know what it's like tonight

E -------
B -------
G -------
D -------
A --2--4-
E -------
          D          A      Bm
   To be living without a fright

E -------
B -------
G -------
D -------
A --2--4-
E -------
            D              A      Bm
 Don't you know what it's like tonight

E -------
B -------
G -------
D -------
A --2--4-
E -------
          D           A        Bm
   To be walking the pale moonlight

E -------
B -------
G -------
D -------
A --2--4-
E -------
          D  A  Bm  


INSTRUMENTAL: 

- Play this 10x's -

E -------
B -------
G -------
D -------
A --2--4-
E -------
          D  A  Bm  


========================

Then: (Single strums)
D  A  Bm
D  A  Bm

(Organ only)
D  A  Bm
D  A  D




            
            
Suggest correction
Creating personal tab
Creating personal tab
You can edit any tab online and save it as your Personal.

You can edit, replace or remove any tab part or add personal notes – all changes will be seen only by you.

Personal tabs can be accessed anytime from any device, even offline.
Learn more »
comments
print report bad tab
guest
You may want to rate the tab now too:
select rating
Wanna post a correction for this tab? Suggest correction