Oops, an error
Loading. Please wait.

Spirit In The Sky Tab

version 2
version 2

Solo

  • If you've been looking for accurate tabs for the O... Show more

Whole song

Interactive

58 views 3 this week
no commentswrite comment
1 2 3 4 5
3 more votes to show rating
add to favorites
launch autoscroll
font size
0
reset
how to read this tab
guitar tuner
Autoscroll
slow
fast
+/-
esc
set tempo
stop
Help us to improve Ultimate-Guitar.com Take our survey!
×
Author
Difficulty
intermediate
About this tab version
If you've been looking for accurate tabs for the Outro Solo to Spirit In The Sky by Norman Greenbaum, here they are. Was this info helpful? Yes No
[Outro Solo]

e|-------------------------------------------|
B|----8------8---------8---------8-----------|
G|----10b12--10b12-----10b12-----10b12-------|  x4
D|-------------------------------------------|
A|-------------------------------------------|
E|-------------------------------------------|

e|----------------------------------------------------|
B|-----------8------10-------10--------10-------------|
G|----10b12---------12b14----12b14-----12b14r12-------|
D|----------------------------------------------------|
A|----------------------------------------------------|
E|----------------------------------------------------|

e|-------------------------------|-------------------------------------------------|
B|----------------13-------------|-------13--15--13--------13b(1/4)----------13~~~-|
G|----14--12--14------14---14----|---14---------------14--------------14--14-------|
D|-------------------------------|-------------------------------------------------|
A|-------------------------------|-------------------------------------------------|
E|-------------------------------|-------------------------------------------------|

e|-------------15------------------------------------|
B|------15b17------17pbr15---13---------------13-----|
G|--------------------------------12---12h14---------|
D|---------------------------------------------------|
A|---------------------------------------------------|
E|---------------------------------------------------|

e|---------------------------------------------------|
B|------15b17--15--13--15--13--13h15---13------------|
G|---------------------------------------------------|
D|---------------------------------------------------|
A|---------------------------------------------------|
E|---------------------------------------------------|

e|---------------------------------------------------|
B|------15---13---13h15---13--------13----13h15------|
G|-----------------------------14--------------------|
D|---------------------------------------------------|
A|---------------------------------------------------|
E|---------------------------------------------------|

************************************

| h   Hammer-on
| r   Release
| b   Bend
| br  Bend release
| pb  Pre-bend
| pbr Pre-bend release
| ~~~ Vibrato

************************************
Suggest correction
Give kudos to tab author, rate the tab!
1 2 3 4 5
comments
print report bad tab
guest
You may want to rate the tab now too:
select rating
Wanna post a correction for this tab? Suggest correction