Oops, an error
Loading. Please wait.

Her Name Was Vengeance tab

13 views 1 this week
no commentswrite comment
1 2 3 4 5
1 last vote to show rating
add to favorites
×
Save as Personal and add changes to this tab that will be seen only by you. Learn more ›
×
You can save this tab as Personal to edit and correct it or add notes. All changes will be seen only by you. Learn more »
launch autoscroll
font size
0
reset
how to read this tab
guitar tuner
edit
Autoscroll
slow
fast
+/-
esc
set tempo
stop
Author
Difficulty
About this tab version
This song has a unique format of Intro - Verse - Chorus - Bridge that is played again in the same order before the Outro. Nice unique sounds. Please rate or comment. Was this info helpful? Yes No
Artist/Song:  North By North - Her Name Was Vengeance 
Tuning: Standard
Tabbed by: jjhand


[Intro]

   Guitar 1 - see rhythm below
e|------------------------|------------------------|
B|------------------------|------------------------|
G|------------------------|------------------------|
D|--------------7---------|--------------6---------|
A|-------------------7\---|-------------------7\---|
E|-7--7-7-7--7------------|-7--7-7-7--7------------|
   1  &   2  &  3    4   


e|------------------------|-------------------------|
B|------------------------|-------------------------|
G|------------------------|-------------------------|
D|--------------5---------|----7--7--7--------------|
A|-------------------7\---|----5--5--5-----7--7--7--|
E|-7--7-7-7--7------------|----------------5--5--5--|
                            1  &  2  &  3  &  4  &


intro is played 4x total, but 2nd guitar plays a fill on 2nd time:

   Guitar 2   
e|-----------------------------------|
B|-----------------------------------|
G|----9b10--9~~------7---------------|
D|----------------------9~-----------|
A|-----------------------------------|
E|-----------------------------------|



[Verse 1]
e|-----------------------|-------------------------|
B|-----------------------|-------------------------|
G|-----------------------|-------------------------|
D|-----------------------|-------------------7h9---|  play 2x
A|-----------------------|-------------------------|
E|-10--7-------7------5--|-7--7---------7----------|

e|---------------------|---------------------|--------------------|------------------|
B|---------------------|---------------------|--------------------|------------------|
G|-7------7--7---------|---------------------|--------------------|------------------|
D|-7------7--7---------|-4------4--4---------|-5------5--5--------|-5------5--5--7h9-|
A|-5------5--5---------|-4------4--4---------|-5------5--5--------|-5------5--5------|
E|---------------------|-2------2--2---------|-3------3--3--------|-3------3--3------|

e|-----------------------|-------------------------|
B|-----------------------|-------------------------|
G|-----------------------|-------------------------|
D|-----------------------|-------------------7(h9)-|  play 2x
A|-----------------------|-------------------------|   
E|-10--7-------7------5--|-7--7---------7----------|  () note is first time only


e|---------------------|---------------------|--------------------|------------------|
B|---------------------|---------------------|--------------------|------------------|
G|-7------7--7---------|-6------6--6---------|--------------------|------------------|
D|-7------7--7---------|-6------6--6---------|-4------4--4--------|-4------4--4--7h9-|
A|-5------5--5---------|-4------4--4---------|-4------4--4--------|-4------4--4------|
E|---------------------|---------------------|-2------2--2--------|-2------2--2------|

e|-----------------------|-------------------------|
B|-----------------------|-------------------------|
G|-----------------------|-------------------------|
D|-----------------------|-------------------7h9---|  play 2x
A|-----------------------|-------------------------|
E|-10--7-------7------5--|-7--7---------7----------|

e|---------------------|---------------------|--------------------|------------------|
B|---------------------|---------------------|--------------------|------------------|
G|-7------7--7---------|---------------------|--------------------|------------------|
D|-7------7--7---------|-4------4--4---------|-5------5--5--------|-5------5--5------|
A|-5------5--5---------|-4------4--4---------|-5------5--5--------|-5------5--5------|
E|---------------------|-2------2--2---------|-3------3--3--------|-3------3--3------|

e|--------------------------10-------|
B|-12~~----12~~----12~~-----10-------|
G|--------------------------0--------|
D|-----------------------------------|
A|-----------------------------------|
E|-----------------------------------|



[Chorus]

This part is played 4x
e|------------------------|------------------------|
B|------------------------|------------------------|
G|------------------------|------------------------|
D|--------------7---------|--------------6---------|
A|-------------------7\---|-------------------7\---|
E|-7--7-7-7--7------------|-7--7-7-7--7------------|
           "I feel it.."

e|------------------------|-------------------------|
B|------------------------|-------------------------|
G|------------------------|-------------------------|
D|--------------5---------|----7--7--7--------------|
A|-------------------7\---|----5--5--5-----7--7--7--|
E|-7--7-7-7--7------------|----------------5--5--5--|



[Bridge]
e|-----------------------|-------------------------------|
B|-----------------------|-------------------------------|
G|-----------------------|-------------------------------|
D|-----------------------|------------7h9-7--------------|
A|-------------------5h7-|-5------7h9-------------9--5---| play 2x
E|-3-------------5h7-----|-------------------------------|
 "she didn't care how ..."
 
e|-----------------------|-------------------------------|
B|-----------------------|-------------------------------|
G|-----------------------|-------------------------------|
D|-----------------------|------------7h9-7--------------|
A|-------------------5h7-|-5------7h9-------------9-7-5--|
E|-3-------------5h7-----|-------------------------------|

e|-----------------------|-------------------------------|
B|-----------------------|-------------------------------|
G|-----------------------|------10-10-10--9---7----------|
D|-----------------------|------------------------9------|
A|-----------------------|-------------------------------|
E|-3---3-3----3---3-3----|-2-----------------------------|


[Brief Intro Part]

This part is played 2x
e|------------------------|------------------------|
B|------------------------|------------------------|
G|------------------------|------------------------|
D|--------------7---------|--------------6---------|
A|-------------------7\---|-------------------7\---|
E|-7--7-7-7--7------------|-7--7-7-7--7------------|

e|------------------------|-------------------------|
B|------------------------|-------------------------|
G|------------------------|-------------------------|
D|--------------5---------|----7--7--7--------------|
A|-------------------7\---|----5--5--5-----7--7--7--|
E|-7--7-7-7--7------------|----------------5--5--5--|


[Verse 2]
e|-----------------------|-------------------------|
B|-----------------------|-------------------------|
G|-----------------------|-------------------------|
D|-----------------------|-------------------7h9---|  play 2x
A|-----------------------|-------------------------|
E|-10--7-------7------5--|-7--7---------7----------|

e|---------------------|---------------------|--------------------|------------------|
B|---------------------|---------------------|--------------------|------------------|
G|-7------7--7---------|---------------------|--------------------|------------------|
D|-7------7--7---------|-4------4--4---------|-5------5--5--------|-5------5--5--7h9-|
A|-5------5--5---------|-4------4--4---------|-5------5--5--------|-5------5--5------|
E|---------------------|-2------2--2---------|-3------3--3--------|-3------3--3------|

e|-----------------------|-------------------------|
B|-----------------------|-------------------------|
G|-----------------------|-------------------------|
D|-----------------------|-------------------7(h9)-|  play 2x
A|-----------------------|-------------------------|   
E|-10--7-------7------5--|-7--7---------7----------|  () note is first time only


e|---------------------|---------------------|--------------------|------------------|
B|---------------------|---------------------|--------------------|------------------|
G|-7------7--7---------|-6------6--6---------|--------------------|------------------|
D|-7------7--7---------|-6------6--6---------|-4------4--4--------|-4------4--4--7h9-|
A|-5------5--5---------|-4------4--4---------|-4------4--4--------|-4------4--4------|
E|---------------------|---------------------|-2------2--2--------|-2------2--2------|

e|-----------------------|-------------------------|
B|-----------------------|-------------------------|
G|-----------------------|-------------------------|
D|-----------------------|-------------------7(h9)-|  play 2x
A|-----------------------|-------------------------|
E|-10--7-------7------5--|-7--7---------7----------|

e|---------------------|---------------------|--------------------|------------------|
B|---------------------|---------------------|--------------------|------------------|
G|-7------7--7---------|---------------------|--------------------|------------------|
D|-7------7--7---------|-4------4--4---------|-5------5--5--------|-5------5--5------|
A|-5------5--5---------|-4------4--4---------|-5------5--5--------|-5------5--5------|
E|---------------------|-2------2--2---------|-3------3--3--------|-3------3--3------|

e|--------------------------10-------|
B|-12~~----12~~----12~~-----10-------|
G|--------------------------0--------|
D|-----------------------------------|
A|-----------------------------------|
E|-----------------------------------|



[Chorus 2]

This part is played 4x
e|------------------------|------------------------|
B|------------------------|------------------------|
G|------------------------|------------------------|
D|--------------7---------|--------------6---------|
A|-------------------7\---|-------------------7\---|
E|-7--7-7-7--7------------|-7--7-7-7--7------------|
           "I feel it.."

e|------------------------|-------------------------|
B|------------------------|-------------------------|
G|------------------------|-------------------------|
D|--------------5---------|----7--7--7--------------|
A|-------------------7\---|----5--5--5-----7--7--7--|
E|-7--7-7-7--7------------|----------------5--5--5--|



[Bridge 2]
e|-----------------------|-------------------------------|
B|-----------------------|-------------------------------|
G|-----------------------|-------------------------------|
D|-----------------------|------------7h9-7--------------|
A|-------------------5h7-|-5------7h9-------------9--5---| play 2x
E|-3-------------5h7-----|-------------------------------|
 "she didn't care how ..."
 
e|-----------------------|-------------------------------|
B|-----------------------|-------------------------------|
G|-----------------------|-------------------------------|
D|-----------------------|------------7h9-7--------------|
A|-------------------5h7-|-5------7h9-------------9-7-5--|
E|-3-------------5h7-----|-------------------------------|

e|-----------------------|-------------------------------|
B|-----------------------|-------------------------------|
G|-----------------------|------10-10-10--9---7----------|
D|-----------------------|------------------------9------|
A|-----------------------|-------------------------------|
E|-3---3-3----3---3-3----|-2-----------------------------|



[Outro]

This part is played until the end
e|------------------------|------------------------|
B|------------------------|------------------------|
G|------------------------|------------------------|
D|--------------7---------|--------------6---------|
A|-------------------7\---|-------------------7\---|
E|-7--7-7-7--7------------|-7--7-7-7--7------------|

e|------------------------|-------------------------|
B|------------------------|-------------------------|
G|------------------------|-------------------------|
D|--------------5---------|----7--7--7--------------|
A|-------------------7\---|----5--5--5-----7--7--7--|
E|-7--7-7-7--7------------|----------------5--5--5--|


[Outro Lead]

   played with octave fuzz pedal
e|-------------------------|------------------------7-10-----|
B|----7--------------------|-------------------7-10----------|
G|----9b11r--7-------------|----------------7h9--------------|
D|-------------9-----7-----|-------------7h9-----------------|
A|-------------------------|-9-7------7h9--------------------|
E|-------------------------|--------10-----------------------|

e|-------12b14r12-10---------------------|------------------------------------|------|
B|-12----------------12------------------|------------------------------------|------|
G|-------------------------9b10r--7------|---------7-----9b10-9b10-9--7-------|------|
D|----------------------------------9----|-7h9p7-----9-------------------9--7-|-9----|
A|---------------------------------------|-------9----------------------------|------|
E|---------------------------------------|------------------------------------|------|


Key:
| /  slide up
| \  slide down
| h  hammer-on
| p  pull-off
| ~  vibrato
| +  harmonic
| x  Mute note

            
            
Suggest correction
Creating personal tab
Creating personal tab
You can edit any tab online and save it as your Personal.

You can edit, replace or remove any tab part or add personal notes – all changes will be seen only by you.

Personal tabs can be accessed anytime from any device, even offline.
Learn more »
Give kudos to tab author, rate the tab!
1 2 3 4 5
comments
print report bad tab
guest
You may want to rate the tab now too:
select rating
Wanna post a correction for this tab? Suggest correction