Oops, an error
Loading. Please wait.
3,581 views 9 this week
2 commentsread comments
1 2 3 4 5
x 3
add to favorites
launch autoscroll
font size
0
reset
how to read this tab
guitar tuner
Autoscroll
slow
fast
+/-
esc
set tempo
stop
Help us to improve Ultimate-Guitar.com Take our survey!
×
Author
Difficulty
Tuning
intermediate
D G D G B D
Noth Missippi Allstars
Song: "Shake"
Album: Hernando

Tuning: Open G# 
Key of G# minor pentatonic

Tune Guitar to Open G tuning - DGDGbd. 
Then tune all strings up 1/2 step. 

Key:

h = hammer on
~ = vibrato/let ring
0 = open string
/ = slide 
b^= bend up
bv= release bend

Tabbed by Alex Schwer


Intro/Verse:



d#|-----------------------------------------------8---------------------|
C |---------6-8-6-8---------6-8-6-8---------6-8-6---8-6-8-6-------------|
G#|---------------------------------------------------------7-3h5-3h5-3~|
D#|---------------------------------------------------------------------|
G#|-0-0-0-0-0-0-0-0-0-0-0-0-0-0-0-0-0-0-0-0-0-0-0-0-0-0-0-0-0-0---0-----|
D#|---------------------------------------------------------------------|

Bridge:
"Gonna shake 'em down, gonna shake 'em down girl, gonna shake 'em down....."

d#|--------------------------------------------------|
C |--------------------------------------------------|
G#|--3h5-3h5-3~-----------------3h5-3h5-3~-----------|
D#|--------------3-3-3h5~----0--------------3-3-3h5--|
G#|--0---0---0-------------0----0---0---0------------|
D#|--------------------------------------------------|

Chorus:
"Shake, what yo' mama gave you, shake, what yo' mama gave you"

d#|--------------------------------------------|
C |--0~--0-0--5--3/5-3~-----0~--0-0--5--3/5-0--|
G#|--0~--0-0--5--3/5-3~-----0~--0-0--5--3/5-0--|
D#|--0~--0-0--5--3/5-3~-----0~--0-0--5--3/5-0--|
G#|--0~--0-0--5--3/5-3~-----0~--0-0--5--3/5-0--|
D#|--------------------------------------------|

Solo - 1:23 *played with a slide and with wah pedal and fuzz box*

d#|------------------------------------------------------------------|
C |------------------------------------------------------------------|
G#|--10-12-10-12~--10-12-10------------------------------------------|
D#|-------------------------12-8~------------------------------------|
G#|---------------------------------------3--------3-----3h5-3h5-3~--|
D#|---------------------------------0-3-5---5-3-5----5---------------|

1:36

d#|------------------------------------------------------------------|
C |------------------------------------------------------------------|
G#|-------------------------------------------------------------3----|
D#|---------------------------------------------------------3-5------|
G#|--5/7-5-3-5p3---3-----5/7-5-3-5p3---3~--5/7-5-3-5p3-5-/7----------|
D#|--------------5---5~--------------5-------------------------------|

1:44                          

d#|----------------------------------------------------------------------|
C |--------------3----------------6-6-6-6---6-6-6-6---6-6-6-6---6-6-6-6--|
G#|--5b^-bv5p3p0---3p0----------/7-7-7-7--/7-7-7-7--/7-7-7-7--/7-7-7-7---|
D#|----------------------------------------------------------------------|
G#|----------------------------------------------------------------------|
D#|----------------------------------------------------------------------|

d#|------------------------------------/15~~--|
C |----6-6-6-6----6-6-6-6----6-6-6-8----------|
G#|--/7-7-7-7---/7-7-7-7---/7-7-7-7-----------|
D#|-------------------------------------------|
G#|-------------------------------------------|
D#|-------------------------------------------|
Suggest correction
Give kudos to tab author, rate the tab!
1 2 3 4 5
comments
print report bad tab
2 comments total.
0 reply
waayne 10 May 30, 2015 10:44 PM

Excellent tab

0 reply
Macstudly 10 Mar 18, 2016 07:57 AM

I agree, great tab. Correct tuning and scale. I tune to open G and capo 1. less stress on the guitar.

guest
You may want to rate the tab now too:
select rating
Wanna post a correction for this tab? Suggest correction