Oops, an error
Loading. Please wait.

A Fallen Star Tab

version 1
version 1

Whole song

Interactive

1,379 views 3 this week
no commentswrite comment
1 2 3 4 5
please rate
add to favorites
launch autoscroll
font size
0
reset
how to read this tab
guitar tuner
Tab Pro tools
  • play this tab
  • loop segment
  • change instrument
  • show fretboard
  • metronome
Autoscroll
slow
fast
+/-
esc
set tempo
stop
Contributor
.  - palm mute           /  - slide up to
\  - slide down to       ~  - vibrato
h  - hammer on           b  - Bend
p  - pull off            Suffixes for bend
t  - tap                 f  - full bend    h - half bend
ph - pinched harmonic    q  - quarter bend t - tap bend
*  - see comment         ^  - Hold bend    r release bend
x  - Stuccatto           ~  - vibrato bend
,  - slight palm mute    () - ghost note, sustained note
"  - tremolo note        <> - Trill

Riff 1, play this 2 times before the little solo
E|-------------------------------------------------------------------|
A|-------------------------------------------------------------------|
D|-------------------------------------------------------------------|
G|-------------------------------------------------------------------|
B|-10-------9-------7-------5-------7------9-----12-----10-----11---9|
E|---0-0-0-0-0-0-0-0-0-0-0-0-0-0-0-0--0-0-0-0-0-0--0-0-0--0-0-0--0-0-|
     . . . . . . . . . . . . . . . . . . .  . . .  . . .  . . .  . .

|-------------------------------------------------------------------|
|-------------------------------------------------------------------|
|-------------------------------------------------------------------|
|-------------------------------------------------------------------|
|10-------9-------7-------5------7---9----7--------5-------7--------|
|--0-0-0-0-0-0-0-0-0-0-0-0-0-0-0--0-0-0-0---0-0-0-0-0-0-0-0---------|
   . . . . . . . . . . . . . . .  . . . .   . . . . . . . .

little solo...
|-------------------------------------------------------------------|
|----------------------8-10-12-11-----------------------------------|
|---------------7-9-10----------------------------------------------|
|--------7-9-10-----------------------------------------------------|
|-7-9-10------------------------------------------------------------|
|-------------------------------------------------------------------|

then at 0:24 play the first riff

Now at 0:37 you play this riff:
Riff 2
             still work for this..(you play the riff 2 in whole 2 times)
|-------------------------------------------------------------------|
|-------------------------------------------------------------------|
|-4------2------4------2------4----2-----9----9---9-----7----7------|
|-22222222222222222222222222222222222222-7777777777-777777777777----|(2x)
|-------------------------------------------------------------------|
|-------------------------------------------------------------------|
after
|-------------------------------------------------------------------|
|-------------------------------------------------------------------|
|-------------------------------------------------------------------|
|-5----7----4-------------------------------------------------------|
|-3----5----2-------------------------------------------------------|
|-------------------------------------------------------------------|


beetween 1:02 and 1:28 play the first riff again.
At 1:28 to 1:50 play the second riff again.

Riff 3 at 1:51
                    play that until 2:19
|-------------------------------------------------------------------|
|-------------------------------------------------------------------|
|-------------------------------------------------------------------|
|-9999999999999999999999---------------77777777777777777777777------|
|-777777777777777777777777777777777777755555555555555555555555------|
|----------------------5555555555555555-----------------------------|

                    during the keyboard solo (start at 2:17 min)
|-------------------------------------------------------------------|
|-------------------------------------------------------------------|
|-------------------------------------------------------------------|
|-99999999999999999999999999999999-77777777777777777777777777777777-|
|-------------------------------------------------------------------|
|-------------------------------------------------------------------|

|-------------------------------------------------------------------|
|-------------------------------------------------------------------|
|-------------------------------------------------------------------|
|-99999999999999999999999999999999-12-12-12-12-12-12-12-10-10-10-10-|
|-------------------------------------------------------------------|
|-------------------------------------------------------------------|

|-------------------------------------------------------------------|
|-------------------------------------------------------------------|
|-------------------------------------------------------------------|
|-9999-7777777777777777777------------------------------------------|
|-------------------------99999-88888888888888888888888888888-------|
|-------------------------------------------------------------------|

|-------------------------------------------------------------------|
|-------------------------------------------------------------------|
|-------------------------------------------------------------------|
|-------------------------------------------------------------------|
|-333333333333333333555555555555557777779999999777777777777777777777|
|-------------------------------------------------------------------|

                 guitar solo but i have only the rythm.solo: 2:45min
                                                          finish at 3:34 min
|-------------------------------------------------------------------|
|-------------------------------------------------------------------|
|-------------------------------------------------------------------|
|-9----------7---------9---------7-------9-----7--------------------|
|-7--7-7-7-7-7-7-7-7-7-7-7-7-7-7-7-7-7-7-7-7-7-7-7-7----------------|
|-------------------------------------------------------------------|

|-------------------------------------------------------------------|
|-------------------------------------------------------------------|
|-7-------7-----7------------------------------9-------9-------9----|
|-5-5-5-5-5-5-5-5-5-5-7-------7-------7--------7-7-7-7-7-7-7-7-7----|
|---------------------5-5-5-5-5-5-5-5-5-5-5-5-5---------------------|
|-------------------------------------------------------------------|

end of solo

|-------------------------------------------------------------------|
|--------------------------------------------7-7-7-7-9-9-7-7-9-9----|
|-------------------------------------7-7-9-9-----------------------|
|--2-2-2-2-5-5-4-4-4-4-5-5-5-4-4-4-5-5------------------------------|
|-------------------------------------------------------------------|
|-------------------------------------------------------------------|

|-------------------------------------------------------------------|
|-7-7-7-7-----------------------------------------------------------|
|--------7-7-7-9-9-9-7----------------------------------------------|
|---------------------9-9-9-7-7-7-9---------------------------------|
|-------------------------------------------------------------------|
|-------------------------------------------------------------------|

|-------------------------------------------------------------------|
|-------------------------------------------------------------------|
|-------------------------------------------------------------------|
|-2-2-2-2-2-2-2-2-2-------------------------------------------------|
|-------------------0-0-0-0-0-0-0-0-0-0-5-5-5-5-5-5-5-5-7-7-7-7-7-7-|
|-------------------------------------------------------------------|

|-------------------------------------------------------------------|
|-------------------------------------------------------------------|
|-------------------------------------------------------------------|
|-2-----------------------------------------------------------------|
|-2-----------------------------------------------------------------|
|-0-----------------------------------------------------------------|

end
comments
We did not receive enough feedback on this tab! Please rate:
print report bad tab
1 2 3 4 5
I want to post or [tab]
guest
You may want to rate the tab now too:
select rating
Please do not post tabs as comments. Select "correction" instead!