Oops, an error
Loading. Please wait.

Chasm Tab

version 1
version 1

Whole song

2,365 views 1 this week
no commentswrite comment
1 2 3 4 5
please rate
add to favorites
launch autoscroll
font size
0
reset
how to read this tab
guitar tuner
Autoscroll
slow
fast
+/-
esc
set tempo
stop
Help us to improve Ultimate-Guitar.com Take our survey!
×
Contributor
Difficulty
zjmellet 137
novice
The intro’s not completely right but it’s close.

Intro:
                        1.
|-----------------------|---------------------------|
|-----------------------|-------10-8----------------|
|-------9----------12---|-----9------9-7------------|
|-----9---------12------|----------------9----------|
|---7---------7---------|---7-----------------------|
|-0---------0-----------|-0-------------------------|

2.
|---------|
|---------|
|-5-4---5-|
|-----5---|
|---------|
|---------|
 
Repeat whole intro               

                                 1.
|--------------------------------|---------|
|--------------------------------|---------|
|--------------------------------|---------|
|---0----0---0-4--0-4---2-5-2-5--|-4-------|
|-2----2-------------------------|---5-2-5-|
|--------------------------------|---------|

2.
|-----|
|-----|
|-----|
|-4---|
|---5-|
|-----|

Verse:

|-------------------------|
|-------------------------|
|-------------------------|    x2
|-----5-----7-----9-----5-|
|-0-0---0-0---0-0---0-0---|
|-------------------------|
  . .   . .   . .   . .

                 1.        2.
|----------------|---------|-------------|
|----------------|---------|-------------|
|----------------|---------|-----4-----2-|
|-----5-----4----|-2-----0-|-------------|
|-0-0---0-0---0-0|---0-0---|-0-0---0-0---|
|----------------|---------|-------------|
  . .   . .   . .    . .     . .   . .

|-------------------------|
|-------------------------|
|-------------------------|    x2
|-----5-----7-----9-----5-|
|-0-0---0-0---0-0---0-0---|
|-------------------------|
  . .   . .   . .   . .

                 1.        2.
|----------------|---------|-------------|
|----------------|---------|-------------|
|----------------|---------|-----4-----2-|
|-----5-----4----|-2-----0-|-------------|
|-0-0---0-0---0-0|---0-0---|-0-0---0-0---|
|----------------|---------|-------------|
  . .   . .   . .    . .     . .   . .

|----------------------------------------|
|----------------------------------------|
|----------------------------------------|
|-----8/9-----8/9-----11/12----11/12-----|
|-----6/7-----6/7------9/10-----9/10-----|
|-0-0-----0-0-----0-0-------0-0----------|
  . .     . .     . .       . . 

|----------------------------------------|
|----------------------------------------|
|----------------------------------------|
|-----8/9-----8/9-----11/12----11/12-----|
|-----6/7-----6/7------9/10-----9/10-----|
|-0-0-----0-0-----0-0-------0-0----------|
  . .     . .     . .       . . 

Verse 2:

|-------------------------|
|-------------------------|
|-------------------------|    x2
|-----5-----7-----9-----5-|
|-0-0---0-0---0-0---0-0---|
|-------------------------|
  . .   . .   . .   . .

                 1.        2.
|----------------|---------|-------------|
|----------------|---------|-------------|
|----------------|---------|-----4-----2-|
|-----5-----4----|-2-----0-|-------------|
|-0-0---0-0---0-0|---0-0---|-0-0---0-0---|
|----------------|---------|-------------|
  . .   . .   . .    . .     . .   . .

|----------------------------------------|
|----------------------------------------|
|----------------------------------------|
|-----8/9-----8/9-----11/12----11/12-----|
|-----6/7-----6/7------9/10-----9/10-----|
|-0-0-----0-0-----0-0-------0-0----------|
  . .     . .     . .       . .

Chorus:

|-------------------------------|
|-------------------------------|
|-------------------------------|
|-2-----5--4--0----2--0----5--4-|
|-------------------------------|
|-------------------------------|


|-------------------------------|
|-------------------------------|
|-------------------------------|
|-2-----5--2--0----2--0----5--4-|
|-------------------------------|
|-------------------------------| 


|-------------------------|
|-------------------------|
|-------------------------|    x2
|-----5-----7-----9-----5-|
|-0-0---0-0---0-0---0-0---|
|-------------------------|
  . .   . .   . .   . .

                 1.        2.
|----------------|---------|-------------|
|----------------|---------|-------------|
|----------------|---------|-----4-----2-|
|-----5-----4----|-2-----0-|-------------|
|-0-0---0-0---0-0|---0-0---|-0-0---0-0---|
|----------------|---------|-------------|
  . .   . .   . .    . .     . .   . .

then,

|------------------|
|------------------|
|------------------|
|-2--------2---2-2-|
|-2--------2---2-2-|
|-0--------0---0-0-|

Lead(with violin synthesizer):
|-3-0----3-0----3-0----3-0----------------------------|
|-----------------------------3-0----3-0----3-0----3-0|
|-----------------------------------------------------|      x4
|-----------------------------------------------------|
|-----------------------------------------------------|
|-----------------------------------------------------|

Piano:
|----------------------------------------------------------------|
|----------------------------------------------------------------|
|----------------------------------------------------------------|
|----------------------------------------------------------------|
|-----------------------------2x32-------------------------------|
|-0x32-----------------------------------------------------------|
Play 1st, 3rd, and 4th time through.

Rhythm:
|-------------------------|
|-------------------------|
|--------------4----------|
|-2------------2----------|
|-2------------2----------|
|-0-----------------------|
Come in after 8 measures.
                                 
|-------------------------------------------------------------------|
|-------------------------------------------------------------------|
|----------------------------------4-4---4-4-4---4-4---4-4-4--4-4-4-|
|-2-2---2-2-2---2-2---2-2-2--2-2-2-4-4---4-4-4---4-4---4-4-4--4-4-4-|    x2
|-2-2---2-2-2---2-2---2-2-2--2-2-2-2-2---2-2-2---2-2---2-2-2--2-2-2-|
|-0-0---0-0-0---0-0---0-0-0--0-0-0----------------------------------|


|------------------------------------|
|------------------------------------|
|------------------------------------|    x4
|------------------------------------|
|-----6/7-----7/9-----9/10-----10/12-|
|-0-0-----0-0-----0-0------0-0-------|
  . .     . .     . .      . .

|----------------------------------------|
|----------------------------------------|
|----------------------------------------|
|-----8/9-----8/9-----11/12----11/12-----|
|-----6/7-----6/7------9/10-----9/10-----|
|-0-0-----0-0-----0-0-------0-0----------|
  . .     . .     . .       . .

|-------------------------------|
|-------------------------------|
|-------------------------------|
|-2-----5--2--0----2--0----5--4-|
|-------------------------------|
|-------------------------------|

|-------------------------------|
|-------------------------------|
|-------------------------------|
|-2-----5--4--0----2--0----5--4-|
|-------------------------------|
|-------------------------------|

|-------------------------------|
|-------------------------------|
|-------------------------------|
|-2-----5--2--0----2--0----5--4-|
|-------------------------------|
|-------------------------------|

|-------------------------------|
|-------------------------------|
|-------------------------------|
|-2-----5--4--0----2--0----5--4-|
|-------------------------------|
|-------------------------------|


Guitar Solo
Suggest correction new What's this?
You can suggest a correction to this tab. Community and Mods will review your correction and vote to approve or reject it.
comments
We did not receive enough feedback on this tab! Please rate:
print report bad tab
1 2 3 4 5
guest
You may want to rate the tab now too:
select rating
Please do not post tabs as comments. Select "correction" instead!