Oops, an error
Loading. Please wait.

Chasm tab

version 2
version 2

Whole song

by Norther
115 views 1 this week
no commentswrite comment
1 2 3 4 5
3 more votes to show rating
add to favorites
×
Save as Personal and add changes to this tab that will be seen only by you. Learn more ›
×
You can save this tab as Personal to edit and correct it or add notes. All changes will be seen only by you. Learn more »
launch autoscroll
font size
0
reset
how to read this tab
guitar tuner
edit
Autoscroll
slow
fast
+/-
esc
set tempo
stop
Author
Difficulty
[Intro]

e|---------------------------------------------------------------|
B|---------------------------------------------------------------|
G|---------------------------------------------------------------|
D|--------------------9---------------------------12-------------|
A|------7-----10-----------------10------14----------------------|
E|-0-----------------------0-------------------------------------|

e|---------------------------------------------------------------|
B|---------------------------------------------------------------|
G|-------------------------9-------------------------------------|
D|--------7-------11-----------------7---------------------------|
A|-------------------------------------------10--10-------9------|
E|--0------------------------------------------------------------|

e|---------------------------------------------------------------|
B|---------------------------------------------------------------|
G|---------------------------------------------------------------|
D|--------------------9---------------------------12-------------|
A|------7-----10-----------------10------14----------------------|
E|-0-----------------------0-------------------------------------|
e|---------------------------------------------------------------|
B|---------------------------------------------------------------|
G|---------------------------------------------------------------|
D|---------------------------------------------------------------|
A|---------------------------------------------------------------|
E|---------------------------------------------------------------|

e|---------------------------------------------------------------|
B|---------------------------------------------------------------|
G|---------------------------------------------------------------|
D|---5------------------------5----------------------------------|x2
A|-----------7--------3------------------------------------------|
E|---------------------------------------------------------------|


[Theme]

e|---------------------------------------------------------------|
B|---------------------------------------------------------------|
G|---------------------------------------------------------------|
D|---------------------------------------------------------------|
A|------2-------5------2------5------5-------9------5-------9----|
E|--0-------0------0------0------0-------0------0-------0--------|

e|---------------------------------------------------------------|
B|---------------------------------------------------------------|
G|---------------------------------------------------------------|x2
D|---------------------------------------------------------------|
A|-----7-------10-------7--------10---------9-------5--------2---|
E|-0-------0--------0-------0----------0--------0--------0-------|


[Verse]

e|---------------------------------------------------------------|
B|---------------------------------------------------------------|
G|---------------------------------------------------------------|
D|---------------------------------------------------------------|
A|----------7----------9---------7--------9----------------------|
E|--0--0-------0---0-------0--0------0-0-------------------------|

e|---------------------------------------------------------------|
B|---------------------------------------------------------------|
G|---------------------------------------------------------------|
D|---------------------------------------------------------------|
A|----------7----------9---------7--------9----------------------|
E|--0--0-------0---0-------0--0------0-0-------------------------|

e|---------------------------------------------------------------|
B|---------------------------------------------------------------|
G|---------------------------------------------------------------|
D|---------------------------------------------------------------|
A|---------7---------9----------7--------9-----------------------|
E|--8--8------8--8-------8--8------8--8--------------------------|

e|---------------------------------------------------------------|
B|---------------------------------------------------------------|
G|---------------------------------------------------------------|
D|----------9----------7-----------------------------------------|x2
A|--------------------------------10----------9h10---------------|
E|--8--8--------8-8--------8-8---------8--8----------------------|


[Bridge 1]

e|---------------------------------------------------------------|
B|---------------------------------------------------------------|
G|---------------------------------------------------------------|
D|---------0h2---------0h2--------2h3-------3h5------------------|
A|---------------------------------------------------------------|
E|--0--0--------0--0--------0--0-------0-0-----------------------|

e|---------------------------------------------------------------|
B|---------------------------------------------------------------|
G|---------------------------------------------------------------|
D|--------0h2---------0h2----------------------------------------|x2
A|----------------------------------5h7p5----------5h7-----------|
E|--0--0--------0--0--------0--0------------0--0-----------------|


[Verse]

e|---------------------------------------------------------------|
B|---------------------------------------------------------------|
G|---------------------------------------------------------------|
D|---------------------------------------------------------------|
A|----------7----------9---------7--------9----------------------|
E|--0--0-------0---0-------0--0------0-0-------------------------|

e|---------------------------------------------------------------|
B|---------------------------------------------------------------|
G|---------------------------------------------------------------|
D|---------------------------------------------------------------|
A|----------7----------9---------7--------9----------------------|
E|--0--0-------0---0-------0--0------0-0-------------------------|

e|---------------------------------------------------------------|
B|---------------------------------------------------------------|
G|---------------------------------------------------------------|
D|---------------------------------------------------------------|
A|---------7---------9----------7--------9-----------------------|
E|--8--8------8--8-------8--8------8--8--------------------------|

e|---------------------------------------------------------------|
B|---------------------------------------------------------------|
G|---------------------------------------------------------------|
D|----------9----------7-----------------------------------------|x2
A|--------------------------------10----------9h10---------------|
E|--8--8--------8-8--------8-8---------8--8----------------------|


[Bridge 2]

e|---------------------------------------------------------------|
B|---------------------------------------------------------------|
G|---------------------------------------------------------------|
D|---------0h2---------0h2--------2h3-------3h5------------------|
A|---------------------------------------------------------------|
E|--0--0--------0--0--------0--0-------0-0-----------------------|

e|---------------------------------------------------------------|
B|---------------------------------------------------------------|
G|---------------------------------------------------------------|*2
D|-----------------------------2p0--------5p4--------------------|
A|-------5p2--------3p2------------------------------------------|
E|-0--0-------0-0---------0-0--------0-0-------------------------|


[Chorus]

(This is the lead guitar playing quietly in the background)

e|---------------------------------------------------------------|
B|---------------------------------------------------------------|
G|---------------------------------------------------------------|
D|---------------------------------------------------------------|
A|--7------9-------10------5----4--------------------------------|
E|---------------------------------------------------------------|

e|---------------------------------------------------------------|
B|---------------------------------------------------------------|
G|---------------------------------------------------------------|
D|---------------------------------------------------------------|
A|--10------9------7--------5-------5------3------5--------------|
E|---------------------------------------------------------------|


[Verse]

e|---------------------------------------------------------------|
B|---------------------------------------------------------------|
G|---------------------------------------------------------------|
D|---------------------------------------------------------------|
A|----------7----------9---------7--------9----------------------|
E|--0--0-------0---0-------0--0------0-0-------------------------|

e|---------------------------------------------------------------|
B|---------------------------------------------------------------|
G|---------------------------------------------------------------|
D|---------------------------------------------------------------|
A|----------7----------9---------7--------9----------------------|
E|--0--0-------0---0-------0--0------0-0-------------------------|

e|---------------------------------------------------------------|
B|---------------------------------------------------------------|
G|---------------------------------------------------------------|
D|---------------------------------------------------------------|
A|---------7---------9----------7--------9-----------------------|
E|--8--8------8--8-------8--8------8--8--------------------------|

e|---------------------------------------------------------------|
B|---------------------------------------------------------------|
G|---------------------------------------------------------------|
D|----------9----------7-----------------------------------------|x2
A|--------------------------------10----------9h10---------------|
E|--8--8--------8-8--------8-8---------8--8----------------------|



[Interlude]

(beginning at 2:12)

e|---------------------------------------------------------------|
B|---------------------------------------------------------------|
G|---------------------------------------------------------------|
D|-2-------------------------------------------------------------|
A|-2-------------------------------------------------------------|
E|-0---0---0-0---------------------------------------------------|

e|---------------------------------------------------------------|
B|---------------------------------------------------------------|
G|-9-------------------------------------------------------------|
D|-9----------------------------9--------------------------------|
A|-7----------------------------7--------------------------------|
E|------------------------------7--------------------------------|

(repetition begins here)
e|---------------------------------------------------------------|
B|---------------------------------------------------------------|
G|---------------------------------------------------------------|
D|---------------------------------------------------------------|
A|---------------------------------------------------------------|
E|-0-0---0-0-0---0-0---0-0-0--0-0-0------------------------------|

e|---------------------------------------------------------------|
B|---------------------------------------------------------------|
G|---------------------------------------------------------------|
D|---------------------------------------------------------------|x2
A|-2-2---2-2-2---2-2---2-2-2--2-2-2------------------------------|
E|---------------------------------------------------------------|

(repetition begins here)
e|---------------------------------------------------------------|
B|---------------------------------------------------------------|
G|---------------------------------------------------------------|
D|--0h2p0-------0h2p0--------0h4p0--------0h4p0------------------|
A|---------------------------------------------------------------|
E|---------0-0---------0-0-----------0-0-------------------------|

e|---------------------------------------------------------------|
B|---------------------------------------------------------------|
G|---------------------------------------------------------------|
D|------0h5p0------0h5p0-------0h7p0-------7~--------------------|x2
A|---------------------------------------------------------------|
E|-0-0--------0-0--------0-0----------0-0------------------------|

Repeat Bridge 1


[Bridge 1]

e|---------------------------------------------------------------|
B|---------------------------------------------------------------|
G|---------------------------------------------------------------|
D|---------0h2---------0h2--------2h3-------3h5------------------|
A|---------------------------------------------------------------|
E|--0--0--------0--0--------0--0-------0-0-----------------------|

e|---------------------------------------------------------------|
B|---------------------------------------------------------------|
G|---------------------------------------------------------------|
D|--------0h2---------0h2----------------------------------------|x2
A|----------------------------------5h7p5----------5h7-----------|
E|--0--0--------0--0--------0--0------------0--0-----------------|

Repeat Chorus x2


[Chorus]

(This is the lead guitar playing quietly in the background)

e|---------------------------------------------------------------|
B|---------------------------------------------------------------|
G|---------------------------------------------------------------|
D|---------------------------------------------------------------|
A|--7------9-------10------5----4--------------------------------|
E|---------------------------------------------------------------|
                                                                                x2
e|---------------------------------------------------------------|
B|---------------------------------------------------------------|
G|---------------------------------------------------------------|
D|---------------------------------------------------------------|
A|--10------9------7--------5-------5------3------5--------------|
E|---------------------------------------------------------------|


[Solo]

e|---20-19-17----------------------------------------------------|
B|------------20-19-17-------------------------------------------|
G|-----------------------15~-------------------------------------|
D|------------------------------17-16-14-------------------------|
A|---------------------------------------17-15-14-13~------------|
E|---------------------------------------------------------------|

        PM|--------------|
e|---------------------------------------------------------------|
B|-----------------------------------------20---17---------------|
G|-7h9-9-9-9-9-9-9-9-9-9-9----12h15------------------------------|
D|-----------------------------------14--------------------------|
A|---------------------------------------------------------------|
E|---------------------------------------------------------------|

        PM|--------------|
e|---------------------------------------------------------------|
B|-------------------------------20-20-20-20-20-20-19~-----------|
G|-7h9-9-9-9-9-9-9-9-9-9-9---------------------------------------|
D|---------------------------------------------------------------|
A|---------------------------------------------------------------|
E|---------------------------------------------------------------|

e|-19-17-15-19-17-15---------------------------------------------|
B|-------------------19-17-15-19-17-15---------------------------|
G|-------------------------------------19-17-16------------------|
D|----------------------------------------------19-17-16s12~-----|
A|---------------------------------------------------------------|
E|---------------------------------------------------------------|

e|-15-19-15-------------------------14-17--15-12-----------------|
B|----------17-------------------15--------------13--------------|
G|-------------16-------------14--------------------12-----------|
D|----------------17-------16--------------------------14--------|
A|-------------------19s17--------------------------------15-----|
E|---------------------------------------------------------------|

e|--------------8-12--10-7-----------------------8-12-8--------------|
B|-----------10------------8------------------10--------10-----------|
G|--------9------------------7-------------9---------------9---------|
D|-----10----------------------9--------10-------------------10------|
A|--12---------------------------10s12--------------------------12---|
E|-------------------------------------------------------------------|

e|-------------10-14-10---------------------------15-19-17-15----|
B|----------12----------12---------------------17----------------|
G|-------11----------------11---------------16-------------------|
D|----12----------------------12---------17----------------------|
A|-14----------------------------14---19-------------------------|
E|---------------------------------------------------------------|
     
(do this pull off 6 times)
e|-19p17p15---12~------------------------------------------------|
B|---------------------------------------------------------------|
G|---------------------------------------------------------------|
D|---------------------------------------------------------------|
A|---------------------------------------------------------------|
E|---------------------------------------------------------------|


***********************************
| s   Slide 
| h   Hammer-on
| p   Pull-off
| ~   Vibrato
***********************************

            
            
Suggest correction
Creating personal tab
Creating personal tab
You can edit any tab online and save it as your Personal.

You can edit, replace or remove any tab part or add personal notes – all changes will be seen only by you.

Personal tabs can be accessed anytime from any device, even offline.
Learn more »
Give kudos to tab author, rate the tab!
1 2 3 4 5
comments
print report bad tab
guest
You may want to rate the tab now too:
select rating
Wanna post a correction for this tab? Suggest correction