Oops, an error
Loading. Please wait.

Death Unlimited Tab

version 1
version 1

Whole song

Interactive

7,718 views 1 this week
6 commentsread comments
1 2 3 4 5
accurate
x 7
add to favorites
launch autoscroll
font size
0
reset
how to read this tab
guitar tuner
Tab Pro tools
  • play this tab
  • loop segment
  • change instrument
  • show fretboard
  • metronome
×
Best way to learn
"Death Unlimited"
Autoscroll
slow
fast
+/-
esc
set tempo
stop
Contributor
Difficulty
intermediate
                          Death Unlimited- Norther

This is one of my favourite songs, and it is my first tab so please email me if you have 
corrections. Thanks.

intro

e------|------------------------|       |------------------------|
b------|------------------------|       |------------------------|
g------|------------------------|       |------------------------|
d--3---|------------------------|       |------------------------|
a--3---|--2--222----------------|       |--2--222----------------|
E--1---|--0--000---12-12-24-12--|x3 then|--0--000---12-12-24-13--|
          .  ...                           .  ...

Repeat Whole intro except the first bar.

Pre-Verse

e---------------------------|--------------------------|
b---------------------------|--------------------------|
g---------------------------|--------------------------|
d------------2---5\4--------|------------2-------------|
a------------2---3\2---7\5--|------------2---3/5--6\5--|
E--000--000--0---------5\3--|--000--000--0---1/3--4\3--|
   ...  ...                    ...  ...

e---------------------------|---------------------------------|
b---------------------------|---------------------------------|
g---------------------------|---------------------------------|
d------------2---5\4--------|------------2--------------------|
a------------2---3\2---7\5--|------------2--------6\5---5\3---|
E--000--000--0---------5\3--|--000--000--0---0-0--4\3---3\1---|
   ...  ...                    ...  ...      . .
Verse

e------------------------------------------------------------------------|
b------------------------------------------------------------------------|
g------------------------------------------------------------------------|
d------------------5--------------4--------------------------------------|
a--2----------------------------------------------------5----------------|
E--0--0-0-0-0-0-0------0-0-0-0--------0-0-0-0-0-0-0-0--------0-0-0-0-0-0-|
      . . . . . .      . . . .        . . . . . . . .        . . . . . .

e----------------------------------------------------------------------|
b----------------------------------------------------------------------|
g----------------------------------------------------------------------|
d------------------5--------------4------------------------------------|
a--7---------------------------------------------------5---------------|
E----0-0-0-0-0-0---------0-0-0-0------0-0-0-0-0-0-0-0------0-0-0-0-0-0-|
     . . . . . .         . . . .      . . . . . . . .      . . . . . .

e------------------------------------------------------------|
b------------------------------------------------------------|
g------------------------------------------------------------|
d-------------------2----------------------------------------|
a--3------------------------------5--------------------------|
E--1---1-1-1-1-1-1------1-1-1-1------1-1-1-1-1-1-1-1---------|
       . . . . . .      . . . .      . . . . . . . .

e--------------------------------------------------------------------|
b--------------------------------------------------------------------|
g--------------------------------------------------------------------|
d-------------------------------2------------------------------------|
a---------------2---------------------------5-------------------3----|
E--1-1-1-1-1-1-----1-1-1-1-1-1-----1-1-1-1-----1-1-1-1-1-1-1-1-------|
   . . . . . .     . . . . . .     . . . .     . . . . . . . .

e----------------------------------------------------------------------------|
b----------------------------------------------------------------------------|
g----------------------------------------------------------------------------|
d-------------------------------5-----------4--------------------------------|
a---------------2----------------------------------------------5-------------|
E--1-1-1-1-1-1--0--0-0-0-0-0-0-----0-0-0-0-----0-0-0-0-0-0-0-0---0-0-0-0-0-0-|
   . . . . . .     . . . . . .     . . . .     . . . . . . . .   . . . . . .

e--------------------------------------------------------------------------|
b--------------------------------------------------------------------------|
g--------------------------------------------------------------------------|
d----------------5----------4----------------------------------------------|
a--7-----------------------------------------5--------------3--------------|
E----0-0-0-0-0-0---0-0-0-0---0-0-0-0-0-0-0-0---0-0-0-0-0-0--1--1-1-1-1-1-1-|
     . . . . . .   . . . .   . . . . . . . .   . . . . . .     . . . . . .

e-----------------------------------------------------------------------|
b-----------------------------------------------------------------------|
g-----------------------------------------------------------------------|
d--2-------------------------------------------------------2------------|
a------------5-----------------3-------------2-----------------------5--|
E----1-1-1-1---1-1-1-1-1-1-1-1---1-1-1-1-1-1---1-1-1-1-1-1---1-1-1-1----|
     . . . .   . . . . . . . .   . . . . . .   . . . . . .   . . . .

e---------------------------------|
b---------------------------------|
g---------------------------------|
d---------------------------------|
a-------------------3-------------|
E--1-1-1-1-1-1-1-1-----1-1-1-1-1-1|

Play the pre-verse, then play the verse again.

Chorus

e----------------------------|  |-----------------------------|
b----------------------------|  |-----------------------------|
g----------------------------|  |-----------------------------|
d----------2--5---4---2------|  |----------5--5---4---2-------|
a----------2--------------5-3|  |----------5--------------5-3-|
E--0--000--0----0---0---0----|x2|--3--333--3----0---0---0-----|


e------------|---------------------|
b------------|---------------------|
g------------|---------------------|
d----------5-|---------------------|
a----------5-|--3---2--------------|
E--3--333--3-|----0---0--5--0--5--2|x2

Repeat Verse, then play the chorus again.

Intro To Solo

e---------------------|
b---------------------|
g---------------------|
d---------------------|then play the intro again
a--3---2--------------|
E----0---0--5--0--5--2|

Im not sure how the solo goes, but after the solo, you play the chorus again, then at 
end of the song you play the pre-verse followed by

e--------|
b--------|
g--------|
d--2-2-2-|
a--2-2-2-|
E--0-0-0-|

Listen to the song for exact timing.
comments
print report bad tab
6 comments total. Showing first comments.
0 reply
cincit2 wrote on January 22 2007, 02:30 pm

four stars, but it needs the solo. otherwise, good job

0 reply
ParkerScks wrote on October 4 2007, 05:09 pm

spot on

0 reply
azria032 wrote on July 24 2008, 01:37 am

SOLO bro. other than that, its a dead on tab.

I want to post or [tab]
guest
You may want to rate the tab now too:
select rating
Please do not post tabs as comments. Select "correction" instead!