Oops, an error
Loading. Please wait.

End Of Our Lives Tab

678 views 3 this week
no commentswrite comment
1 2 3 4 5
please rate
add to favorites
launch autoscroll
font size
0
reset
how to read this tab
guitar tuner
Tab Pro tools
  • play this tab
  • loop segment
  • change instrument
  • show fretboard
  • metronome
×
Best way to learn
"End Of Our Lives"
Autoscroll
slow
fast
+/-
esc
set tempo
stop
BAND: Norther
SONG: The End of Our Lives
ALBUM: Till Death Unites Us (2006)
TABBED BY: R. Spahr
Tuning: Down one whole step (D G C F A d)


Now this is just my interpretation of the song, most of it should be pretty close to
correct, but I know theres a few parts that might not be exact. And, only being 15 years
and this being my first tab, see how it is and please rate/comment.


Intro (4x)
Both Guitars
d|--------------------------------------------------------|
A|--------------------------------------------------------|
F|--------------------------------------------------------|
C|--3---4------3---4------3---4---3---4------3---4----4444|
G|--3---4------3---4------3---4---3---4------3---4----4444|
D|0-1-0-2----0-1-0-2----0-1-0-2-0-1-0-2----0-1-0-2----2222|
PM. . . .    . . . .    . . . . . . . .    . . . .

Verse (2x)
Guitar 1
                                            1.___________   2._____________
d|---------------------------------------------------------|---------------|
A|o-------------------------------------------------------o|---------------|
F|--------------------5-5-5-5------------------------------|---------------|
C|-2-----3-3-2--------5-5-5-5--2-----3-3-2--------7-7-7-7--|2-2---7--------|
G|o2-----3-3-2--------3-3-3-3--2-----3-3-2--------7-7-7-7-o|2-2---7--------|
D|-0-000-1-1-0--0-0-0----------0-000-1-1-0--0-0-0-5-5-5-5--|0-0-0-5-00-0-0-|
PM   ...   .    . . .            ...   .    . . .           . . .   .. . .

Guitar 2
                                             1._____________ 2._____________
d|----------------------------------------------------------|---------------|
A|o--------------------------------------------------------o|---------------|
F|--------------------5-5-5-5-------------------------------|---------------|
C|-9-----10-10-9------5-5-5-5--9-----10-10-9-------7-7-7-7--|------7--------|
G|o7-----8--8--7------3-3-3-3--7-----8--8--7-------7-7-7-7-o|2-----7--------|
D|---000--------0-0-0------------000---------0-0-0-5-5-5-5--|0-0-0-5-00-0-0-|
PM   ...    .   . . .            ...    .    . . .           . . .   .. . .


Chorus (2x)

Guitar 1
d|-------------------------------------------|
A|-------13-12-13~---15-13-15~--15-13--------|
F|-14~--------------------------------14-12~-|
C|-------------------------------------------|
G|-------------------------------------------|
D|-------------------------------------------|
PM

Guitar 2
d|-------------------------------------------|
A|-------------------------------------------|
F|-------------------------------------------|
C|-7--7-7-7-7-10-10101010-12--12-12-12-12-5--|
G|-7--7-7-7-7-10-10101010-12--12-12-12-12-5--|
D|-5--5-5-5-5-8--8-8-8-8--10--10-10-10-10-3--|
PM    . . . .    . . . .      .  .  .  .

Guitar 1
d|-------------------------------------------|
A|-------13-12-13~---15-13-15~--15~------14~-|
F|-14~---------------------------------------|
C|-------------------------------------------|
G|-------------------------------------------|
D|-------------------------------------------|
PM

Guitar 2
d|-------------------------------------------|
A|-------------------------------------------|
F|-------------------------------------------|
C|-7--7-7-7-7-10-10101010-12--12-12-12-12-7--|
G|-7--7-7-7-7-10-10101010-12--12-12-12-12-7--|
D|-5--5-5-5-5-8--8-8-8-8--10--10-10-10-10-5--|
PM    . . . .    . . . .      .  .  .  .

Intro Riff (1x)

Solo 1

Guitar 1
d|-------------------------------------------|
A|-------------------------------------------|
F|---------5~-4~-5-4-2---4-2-----------3~-5~-|
C|-2-4-5-2-------------2-----5-2-4-5-2-------|
G|-------------------------------------------|
D|-------------------------------------------|
PM . . . .       . . . . . . . . . . .

Guitar 2
d|----------------------------------|
A|----------------------------------|
F|----------------------------------|
C|-2------5--2------7--2------9--2--|
G|-2------5--2------7--2------9--2--|
D|-0--0-0-3--0--0-0-5--0--0-0-7--0--|
PM    . .       . .       . .


Guitar 1
d|-------------------------------------3~-0~-|
A|-------------------------------------------|
F|---------5~-4~-5-4-2---4-2-----------------|
C|-2-4-5-2-------------2-----5-2-4-5-2-------|
G|-------------------------------------------|
D|-------------------------------------------|
PM . . . .       . . . . . . . . . . .

Guitar 2
d|----------------------------------|
A|----------------------------------|
F|----------------------------------|
C|-2------5--2------7--2------9--2--|
G|-2------5--2------7--2------9--2--|
D|-0--0-0-3--0--0-0-5--0--0-0-7--0--|
PM    . .       . .       . .


Guitar 1
d|--------------------------------------------------10-12-|
A|-----------13~-12~-13-12-10----12-10--------------------|
F|-9-11-12-9------------------12-------12-9-11-12-9-------|
C|--------------------------------------------------------|
G|--------------------------------------------------------|
D|--------------------------------------------------------|
PM

Guitar 2
d|----------------------------------|
A|----------------------------------|
F|----------------------------------|
C|-2------5--2------7--2------9--2--|
G|-2------5--2------7--2------9--2--|
D|-0--0-0-3--0--0-0-5--0--0-0-7--0--|
PM    . .       . .       . .


Guitar 1
d|--------------------------------------------------15~-12~-|
A|-----------13~-12~-13-12-10----12-10----------------------|
F|-9-11-12-9------------------12-------12-9-11-12-9---------|
C|----------------------------------------------------------|
G|----------------------------------------------------------|
D|----------------------------------------------------------|
PM

Guitar 2
d|----------------------------------|
A|----------------------------------|
F|----------------------------------|
C|-2------5--2------7--2------9--2--|
G|-2------5--2------7--2------9--2--|
D|-0--0-0-3--0--0-0-5--0--0-0-7--0--|
PM    . .       . .       . .

Verse Riff (2x)


Chorus Riff (2x)


Intro Riff (4x)

Solo 2

UM... WHAT? maybe later...
that keyboard solo is nice though

Guitar 2 behind Guitar 1 solo (4x)
d|----------------------------------|
A|----------------------------------|
F|----------------------------------|
C|-2------5--2------7--2------9--2--|
G|-2------5--2------7--2------9--2--|
D|-0--0-0-3--0--0-0-5--0--0-0-7--0--|
PM    . .       . .       . .


Chorus Riff (2x)

Outro
Both Guitars
d|--------------------------------------------------------|
A|--------------------------------------------------------|
F|--------------------------------------------------------|
C|--3---4------3---4------3---4---3---4------3---4--p.h.2-|
G|--3---4------3---4------3---4---3---4------3---4--------|
D|0-1-0-2----0-1-0-2----0-1-0-2-0-1-0-2----0-1-0-2--------|
PM. . . .    . . . .    . . . . . . . .    . . . .


There you have it, all but that last solo. Again, please rate/comment. Have fun with
song, as I did.


| /  slide up
| \  slide down
| h  hammer-on
| p  pull-off
| ~  vibrato
| +  harmonic
| x  Mute note
comments
We did not receive enough feedback on this tab! Please rate:
print report bad tab
1 2 3 4 5
I want to post or [tab]
guest
You may want to rate the tab now too:
select rating
Please do not post tabs as comments. Select "correction" instead!