Oops, an error
Loading. Please wait.

Frozen Sky Tab

version 2
version 2

Whole song

Interactive

1,554 views 1 this week
no commentswrite comment
1 2 3 4 5
please rate
add to favorites
launch autoscroll
font size
0
reset
how to read this tab
guitar tuner
Autoscroll
slow
fast
+/-
esc
set tempo
stop
Help us to improve Ultimate-Guitar.com Take our survey!
×
Author
There are some vibratos/slides but you'll hear them while playing along. Please let me 
if you see something that (you think) should be different.

Intro

E------------|----------|
B------------|x4--------| Ring
G------------|----------|
D--2-2-2-----|------2---|
A--2-2-2-----|------2---|
E--0-0-0-----|------0---|
   * * *


Middle

E--------------------------------------------------------------------------|
B------------8-7-----------------------------------------------------------| x3
G----------9---------------------------------------------------------------|
D--------9------------7------------9--10-9 --------9--9--------------------|
A---7-10---------7-10 -------7-10-------------7-10-------------------------|
E------------------------------------------------------10------------------|

E--------------------------------------------------------------------------|
B------------8-7-----------------------------------------------------------|
G----------9---------------------------------------------------------------|
D--------9------------7------------9--10-9 ---7-5-4-0----------------------|
A---7-10---------7-10 -------7-10---------------------2-0------------------|
E---------------------------------------------------------------------=----|

End

E---17-19-15-------17 19 15-------17-15-------------/19-17-19-17-19-17-------------|
B------------17-------------------------19-15-19-----------------------------------|
G----------------------------------------------------------------------------------|
D----------------------------------------------------------------------------------|
A----------------------------------------------------------------------------------|
E----------------------------------------------------------------------------------|

E---17-19-15-------17 19 15-------17-15-------------/19-17-19-17-19-17-15----------|
B------------17-------------------------19-15-19-----------------------------------|
G----------------------------------------------------------------------------------|
D----------------------------------------------------------------------------------|
A----------------------------------------------------------------------------------|
E----------------------------------------------------------------------------------|
Suggest correction
Give kudos to tab author, rate the tab!
1 2 3 4 5
comments
print report bad tab
guest
You may want to rate the tab now too:
select rating
Please do not post tabs as comments. Select "correction" instead!