Oops, an error
Loading. Please wait.

Nothing Bass Tab

version 1
version 1

Whole song

Interactive

258 views 1 this week
no commentswrite comment
1 2 3 4 5
3 more votes to show rating
add to favorites
launch autoscroll
font size
0
reset
guitar tuner
Autoscroll
slow
fast
+/-
esc
set tempo
stop
Help us to improve Ultimate-Guitar.com Take our survey!
×
Author
Difficulty
intermediate
Nothing-Norther

Tabbed by :Bill Gallagher


Its not perfect, but it sounds pretty close. Enjoy!!!


                                                           
                                     x6      3,4,5,6 end  
G|| ---------|---------|---------|--------- |-----------4|
D||*---------|---------|----3----|----3----*|----3---5---|
A||*----7----|----7----|---------|---------*|------------|
E|| 0000-0000|0000-0000|1111-1111|1111-1111 |1111-111-11-|

(Fill 1)   .
  h   h    h    ett                                            tt
G|--------|--------|--------|--------|--------|--------|---------|
D|--------|--------|--------|--------|--------|--------|---------|
A|----3---|3----200|----3---|5---x\\\|----3---|3----200|----3--33|
E|0-------|--------|0-------|--------|0-------|--------|0--------|

(end fill 1)                                       
G||--------| | ---------|------------|---------|-----------4 |
D||--------| |*---------|------------|----3----|----3---5---*|
A||5---x\\\| |*----7----|----7-------|---------|------------*|
E||--------| | 0000-0000|0000-0000-00|1111-1111|1111-111-11- |

                                                 
G|| ---------|---------|---------|-----------4 ||
D||*---------|---------|----3----|----3---5---*||
A||*----7----|----7----|---------|------------*||
E|| 0000-0000|0000-0000|1111-1111|1111-111-11- ||


Play Fill 1 once

(Fill 2)                        x2
G||--------|--------|--------|--------||
D||--------|--------|--------|--------||
A||--------|--------|--------|5-5-5-5-||
E||0-0-0-0-|0-0-0-0-|3-3-3-3-|--------||


   W        H                                        
G||--------|--------|---------|------------||
D||--------|---3----|---------|------------||
A||3-------|L---2325|----7----|----7-------||
E||--------|--------|0000-0000|0000-0000-00||


   W        H                          
G||--------|--------|---------|---------||
D||--------|---3----|---------|--------3||
A||3-------|L---2325|----7----|----7----||
E||--------|--------|0000-0000|0000-000-||


G||--------|--------|--------|--------||
D||--------|--------|--------|--------||
A||--------|--------|--------|5---7---||
E||0---0---|0---0---|3---3---|--------||


G||--------|--------|--------|----------||
D||--------|--------|--------|----------|| 
A||--------|--------|--------|3-53--8757|| 
E||0---0---|0---0---|3---3---|----------||


                                       
   W        W                                             
G||--------|--------|---------|---------||
D||--------|--------|---------|---------||
A||L-------|L-------|----7----|----7----||
E||--------|--------|0000-0000|0000-0000||


G||--------|--------|---------|---------||
D||--------|--------|---------|---------||
A||23------|L-------|----7----|----7----||
E||--------|--------|0000-0000|0000-0000||

Play Fill 1 once
Play Fill 2 x 4

                                                                         
G|| -------------|-------------|-------------|------------- ||
D||*-------------|-------------|-------------|-------------*||
A||*-------------|-------------|-------------|5555-5555-555*||
E|| 0000-0000-000|0000-0000-000|3333-3333-333|------------- ||


2nd Ending
G||-------------||
D||-------------||
A||5555-5555----||
E||----------333||

                                                  
G||--------|--------|---------|------------|--------||
D||--------|---3----|---------|------------|--------||
A||3-------|L---2325|----7----|----7-------|3-------||
E||--------|--------|0000-0000|0000-0000-00|--------||




G||--------|---------|---------|--------|---------|---------||
D||---3----|---------|---------|--------|---------|---------||
A||L---2325|----7----|----7----|--------|----7----|----7----||
E||--------|0000-0000|0000-0000|--------|0000-0000|0000-0000||


                                         
G||---------|---------|---------|---------|---------|-----------4||
D||----3----|----3----|---------|---------|----3----|----3---5---||
A||---------|---------|----7----|----7----|---------|------------||
E||1111-1111|1111-1111|0000-0000|0000-0000|1111-1111|1111-111-11-||


G||--------|--------|--------|--------|
D||--------|--------|--------|--------|
A||--------|--------|--------|--------|
E||1-------|L-------|L-------|L-------|
Suggest correction
Give kudos to tab author, rate the tab!
1 2 3 4 5
comments
print report bad tab
guest
You may want to rate the tab now too:
select rating
Wanna post a correction for this tab? Suggest correction