Oops, an error
Loading. Please wait.

Saviour Tab

version 1
version 1

Whole song

Interactive

2,002 views 1 this week
2 commentsread comments
1 2 3 4 5
accurate
x 3
add to favorites
launch autoscroll
font size
0
reset
how to read this tab
guitar tuner
Tab Pro tools
  • play this tab
  • loop segment
  • change instrument
  • show fretboard
  • metronome
×
Best way to learn
"Saviour"
Autoscroll
slow
fast
+/-
esc
set tempo
stop
Contributor
Difficulty
novice
SAVIOUR
As recorded by Norther
(From the 2008 Album N)

Words by P. Lindroos
Music by P. Lindroos

Tuning: Standard (E A D G B E)

I worked this song out by ear, its NOT 100% correct with what Norther play

||------------------------------------------------------------------|
||--------8-----8--10/11--11-11-10~---6-6-4~------------------------|
||----7-7-----7-----------------------------------------------------|
||------------------------------------------------------------------|
||------------------------------------------------------------------|
||------------------------------------------------------------------|

|-------------------------------------------------------------------||
|---------8-----8--10/11--11-11-10~---8-8-6~----------------------o-||
|-----7-7-----7-----------------------------------------------------||
|-------------------------------------------------------------------||
|-----------------------------------------------------------------o-||
|-------------------------------------------------------------------|| x 2


|------------------------------------------------------------------|
|--------8-----8--10/11--11-11-10~---6-6-4~------------------------|
|----7-7-----7-----------------------------------------------------|
|------------------------------------------------------------------|
|------------------------------------------------------------------|
|------------------------------------------------------------------|

|------------------------------------------------------------------|
|----4-4-3~--6-6-4~---11-11-10~--8-8-6---8\------------------------|
|------------------------------------------------------------------|
|------------------------------------------------------------------|
|------------------------------------------------------------------|
|------------------------------------------------------------------|


this bit im not sure about but i play the chords like this

|------------------------------------------------------------------|
|------------------------------------------------------------------|
|------------------------------------------------------------------|
|----5--5-5--------------7-----------------------------------------|
|----3--3-3--6---8--8-8--5-----------------------------------------| x2
|------------4---6--6-6--------------------------------------------|

listen to the song for rythmn

|------------------------------------------------------------------|
|------------------------------------------------------------------|
|----2--------------2----5----7------------------------------------|
|----2----5----3----2----5----7------------------------------------|
|----0----5----3----0----3----5------------------------------------| x2
|---------3----1---------------------------------------------------|

back to chorus

||------------------------------------------------------------------|
||--------8-----8--10/11--11-11-10~---6-6-4~------------------------|
||----7-7-----7-----------------------------------------------------|
||------------------------------------------------------------------|
||------------------------------------------------------------------|
||------------------------------------------------------------------|

|-------------------------------------------------------------------||
|---------8-----8--10/11--11-11-10~---8-8-6~----------------------o-||
|-----7-7-----7-----------------------------------------------------||
|-------------------------------------------------------------------||
|-----------------------------------------------------------------o-||
|-------------------------------------------------------------------|| x 2


|------------------------------------------------------------------|
|--------8-----8--10/11--11-11-10~---6-6-4~------------------------|
|----7-7-----7-----------------------------------------------------|
|------------------------------------------------------------------|
|------------------------------------------------------------------|
|------------------------------------------------------------------|

|------------------------------------------------------------------|
|----4-4-3~--6-6-4~---11-11-10~--8-8-6\----------------------------|
|------------------------------------------------------------------|
|------------------------------------------------------------------|
|------------------------------------------------------------------|
|------------------------------------------------------------------|

verse

listen to the song for rythmn

|------------------------------------------------------------------|
|------------------------------------------------------------------|
|----2--------------2----5----7------------------------------------|
|----2----5----3----2----5----7------------------------------------|
|----0----5----3----0----3----5------------------------------------| x2
|---------3----1---------------------------------------------------|

this is how i play this part, its not the way Norther play it but it fits

|------------------------------------------------------------------|
|------------------------------------------------------------------|
|--------5h7-4h7--7/9~-9~---7-5-4----------------------------------|
|----5h7---------------------------7-5-5\4~------------------------|
|------------------------------------------------------------------| x4
|------------------------------------------------------------------|

back to chorus

||------------------------------------------------------------------|
||--------8-----8--10/11--11-11-10~---6-6-4~------------------------|
||----7-7-----7-----------------------------------------------------|
||------------------------------------------------------------------|
||------------------------------------------------------------------|
||------------------------------------------------------------------|

|-------------------------------------------------------------------||
|---------8-----8--10/11--11-11-10~---8-8-6~----------------------o-||
|-----7-7-----7-----------------------------------------------------||
|-------------------------------------------------------------------||
|-----------------------------------------------------------------o-||
|-------------------------------------------------------------------|| x 2


|------------------------------------------------------------------|
|--------8-----8--10/11--11-11-10~---6-6-4~------------------------|
|----7-7-----7-----------------------------------------------------|
|------------------------------------------------------------------|
|------------------------------------------------------------------|
|------------------------------------------------------------------|

|------------------------------------------------------------------|
|----4-4-3~--6-6-4~---11-11-10~--8-8-6-----------------------------|
|------------------------------------------------------------------|
|------------------------------------------------------------------|
|------------------------------------------------------------------|
|------------------------------------------------------------------|

then repeat this again once more

||------------------------------------------------------------------|
||--------8-----8--10/11--11-11-10~---6-6-4~------------------------|
||----7-7-----7-----------------------------------------------------|
||------------------------------------------------------------------|
||------------------------------------------------------------------|
||------------------------------------------------------------------|

|-------------------------------------------------------------------||
|---------8-----8--10/11--11-11-10~---8-8-6~----------------------o-||
|-----7-7-----7-----------------------------------------------------||
|-------------------------------------------------------------------||
|-----------------------------------------------------------------o-||
|-------------------------------------------------------------------|| x 2


|------------------------------------------------------------------|
|--------8-----8--10/11--11-11-10~---6-6-4~------------------------|
|----7-7-----7-----------------------------------------------------|
|------------------------------------------------------------------|
|------------------------------------------------------------------|
|------------------------------------------------------------------|

|------------------------------------------------------------------|
|----4-4-3~--6-6-4~---11-11-10~--8-8-6~--6h8~----------------------|
|------------------------------------------------------------------|
|------------------------------------------------------------------|
|------------------------------------------------------------------|
|------------------------------------------------------------------|


Tablature Legend
----------------
 h   - hammer-on
 p   - pull-off
 b   - bend
 pb  - pre-bend
 r   - bend release (if no number after the r, then release immediately)
 /\  - slide into or out of (from/to "nowhere")
 s   - legato slide
 S   - shift slide
  - natural harmonic
[n]  - artificial harmonic
n(n) - tapped harmonic
 ~   - vibrato
 tr  - trill
 T   - tap
 TP  - trem. picking
 PM  - palm muting
\n/  - tremolo bar dip; n = amount to dip
 \n  - tremolo bar down
 n/  - tremolo bar up
/n\  - tremolo bar inverted dip
 =   - hold bend; also acts as connecting device for hammers/pulls
 <>  - volume swell (louder/softer)
 x   - on rhythm slash represents muted slash
 o   - on rhythm slash represents single note slash

Misc Legend
-----------
 |  - bar
||  - double bar
||o - repeat start
o|| - repeat end
*|  - double bar (ending)
 :  - bar (freetime)
 $  - Segno
 &  - Coda
comments
We did not receive enough feedback on this tab! Please rate:
print report bad tab
1 2 3 4 5
2 comments total.
0 reply
Mjod wrote on April 19 2008, 04:57 am

Sorry to tell you, but this is bad. The notes are all wrong and you missed a lot of pm. And its played in D.

0 reply
\m/(>_<)\m/ wrote on April 19 2008, 05:37 am

i know its played in D but i play in standard

I want to post or [tab]
guest
You may want to rate the tab now too:
select rating
Please do not post tabs as comments. Select "correction" instead!