Oops, an error
Loading. Please wait.

Smash Tab

version 1
version 1

Whole song

Interactive

742 views 1 this week
no commentswrite comment
1 2 3 4 5
2 more votes to show rating
add to favorites
launch autoscroll
font size
0
reset
how to read this tab
guitar tuner
Autoscroll
slow
fast
+/-
esc
set tempo
stop
Help us to improve Ultimate-Guitar.com Take our survey!
×
Tuning Regular

A

|------------------|----------------|----------------|----------------|
|------------------|----------------|----------------|----------------|
|------------------|----------------|----------------|----------------|
|10-10--10-10---5--|6-6-------------|3-3---3-3---3---|5-5--------5----|
|-8--8.--8--8---3--|4-4.-------6----|1-1.--1-1---1---|3-3.-------3----|
|------------------|-----------4----|----------------|----------------|

|------------------|----------------|----------------|----------------|
|------------------|----------------|----------------|---------PH-----|
|------------------|----------------|----------------|---------x~-----|
|10-10--10-10---5--|6-6-------------|3-3---3-3---3---|5-5-------------|
|-8--8.--8--8---3--|4-4.-------6----|1-1.--1-1---1---|3-3.------------|
|------------------|-----------4----|----------------|----------------|

A2

|----------------|----------------|----------------|----------------|
|----------------|----------------|----------------|----------------|
|----------------|----------------|----------------|----------------|
|----------------|----------------|----------------|----------------|
|8-88.88-88-83333|4-44.44-44-4----|1-11.11-11-11111|3-33.33-33-33333|
|----------------|------------4444|----------------|----------------|x2

Chorus

|----------------|----------------|----------------|----------------|
|----------------|----------------|----------------|----------------|
|----------------|----------------|----------------|----------------|
|----------------|8---------------|6---------------|------------6-8-|
|6---------------|6-66666666666666|4-44444444444444|4444444444444-6-|
|4---------------|----------------|----------------|----------------|

|----------------|----------------|----------------|----------------|
|----------------|----------------|----------------|----------------|
|----------------|----------------|----------------|----------------|
|----------------|8---------------|6---------------|5---------------|
|6---------------|6-66666666666666|4-44444444444444|3---------------|
|4-44444444444444|----------------|----------------|----------------|

B

|----------------|----------------|----------------|----------------|
|----------------|----------------|----------------|----------------|
|----------------|----------------|----------------|----------------|
|----------------|----------------|----------------|----------------|
|--3-3-34~43-----|--3-3-34~43-----|--3-3-34~43-----|--3-3-34~43-----|
|1-----------4-3-|1-----------4-3-|1-----------4-3-|1-----------4-3-|

A

|------------------|----------------|----------------|----------------|
|------------------|------PH--------|----------------|----------------|
|------------------|------x~--------|----------------|----------------|
|10-10--10-10---5--|6-6-------------|3-3---3-3---3---|5-5--------5----|
|-8--8.--8--8---3--|4-4.-------6----|1-1.--1-1---1---|3-3.-------3----|
|------------------|-----------4----|----------------|----------------|

|------------------|----------------|
|------------------|----------------|
|------------------|----------------|
|10-10--10-10---5--|6-6-------------|
|-8--8.--8--8---3--|4-4.-------6----|
|------------------|-----------4----|

|----------------|---------------------------|
|----------------|---------------------------|
|----------------|-----------------1010121312|
|3-3---3-3---3---|---------10101214----------|
|1-1.--1-1---1---|-----8911------------------|
|----------------|88911----------------------|

A2

|----------------|----------------|----------------|----------------|
|----------------|----------------|----------------|----------------|
|----------------|----------------|----------------|----------------|
|----------------|----------------|----------------|----------------|
|8-88.88-88-83333|4-44.44-44-4----|1-11.11-11-11111|3-33.33-33-33333|
|----------------|------------4444|----------------|----------------|x2

Chorus

|----------------|----------------|----------------|----------------|
|----------------|----------------|----------------|----------------|
|----------------|----------------|----------------|----------------|
|----------------|8---------------|6---------------|------------6-8-|
|6---------------|6-66666666666666|4-44444444444444|4444444444444-6-|
|4---------------|----------------|----------------|----------------|

|----------------|----------------|----------------|----------------|
|----------------|----------------|----------------|----------------|
|----------------|----------------|----------------|----------------|
|----------------|8---------------|6---------------|5---------------|
|6---------------|6-66666666666666|4-44444444444444|3---------------|
|4-44444444444444|----------------|----------------|----------------|

B

|----------------|----------------|----------------|----------------|
|----------------|----------------|----------------|----------------|
|----------------|----------------|----------------|----------------|
|----------------|----------------|----------------|----------------|
|--3-3-34~43-----|--3-3-34~43-----|--3-3-34~43-----|--3-3-34~43-----|
|1-----------4-3-|1-----------4-3-|1-----------4-3-|1-----------4-3-|

Solo

|----------------|----------------|----------------|----------------|
|----------------|----------------|----------------|----------------|
|----------------|----------------|----------------|----------------|
|10-10--10~------~----------------|8-8---8~--------~----------------|
|-8--8.--8~------~----------------|6-6.--6~--------~----------------|
|----------------|----------------|----------------|----------------|

|----------------|----------------|----------------|----------------|
|----------------|----------------|----------------|----------------|
|----------------|----------------|----------------|9-9---9~--------|
|6-6---6~--------~----------------|8-8---8~--------|8-8---8~--------|
|4-4.--4~--------~----------------|6-6.--6~--------|7-7.--7~--------|
|----------------|----------------|----------------|----------------|

|----------------|----------------|----------------|----------------|
|----------------|----------------|----------------|----------------|
|----------------|----------------|----------------|----------------|
|----------------|----------------|----------------|----------------|
|--3-3-34~43-----|--3-3-34~43-----|--3-3-34~43-----|--3-3-34~43-----|
|1-----------4-3-|1-----------4-3-|1-----------4-3-|1-----------4-3-|x2

|----------------|----------------|----------------|----------------|
|----------------|----------------|----------------|----------------|
|----------------|----------------|----------------|----------------|
|10-10--10~------~----------------|8-8---8~--------~----------------|
|-8--8.--8~------~----------------|6-6.--6~--------~----------------|
|----------------|----------------|----------------|----------------|

|----------------|----------------|----------------|----------------|
|----------------|----------------|----------------|----------------|
|----------------|----------------|----------------|-------9~-------|
|6-6---6~--------~----------------|8-8---8~---4----|5------8~-------|
|4-4.--4~--------~----------------|6-6.--6~---2----|3------7~-------|
|----------------|----------------|----------------|----------------|

A2


|----------------|----------------|----------------|----------------|
|----------------|----------------|----------------|----------------|
|----------------|----------------|----------------|----------------|
|----------------|----------------|----------------|----------------|
|8-88.88-88-83333|4-44.44-44-4----|1-11.11-11-11111|3-33.33-33-33333|
|----------------|------------4444|----------------|----------------|x2

Chorus

|----------------|----------------|----------------|----------------|
|----------------|----------------|----------------|----------------|
|----------------|----------------|----------------|----------------|
|----------------|8---------------|6---------------|----------------|
|6---------------|6-66666666666666|4-44444444444444|4444444444444444|
|4-44444444444444|----------------|----------------|----------------|x2

Chorus2

|----------------|----------------|----------------|----------------|
|----------------|----------------|----------------|-----------PH---|
|----------------|----------------|----------------|-----------x~---|
|----------------|8-8---8-8~------|6-6---6-6-------|6-6---6-6-------|
|6-6---6-6~------|6-6.--6-6~------|4-4.--4-4~------|4-4.--4-4~------|
|4-4.--4-4~------|----------------|----------------|----------------|

|----------------|----------------|----------------|----------------|
|----------------|----------------|----------------|----------------|
|----------------|----------------|----------------|----------------|
|----------------|8-8---8-8~------|6-6---6-6-------|2-2---2-2-------|
|6-6---6-6~------|6-6.--6-6~------|4-4.--4-4~------|3-3.--3-3~------|
|4-4.--4-4~------|----------------|----------------|----------------|

Outro

|----------------|----------------|----------------|----------------|
|----------------|----------------|----------------|----------------|
|----------------|----------------|----------------|----------------|
|----------------|----------------|----------------|----------------|
|--3-3-34~43-----|--3-3-34~43-----|--3-3-34~43-----|3-------3-------|
|1-----------4-3-|1-----------4-3-|1-----------4-3-|1.------1.------|

End




.  - palm mute                          /  - slide up to
\  - slide down to                      ~  - vibrato
"  - tremelo picking                    () - ghost note
p  - pull off                           h  - hammer-on
tr - trill notes                        fb - full bend (1step)
< > - harmonic
Suggest correction
Give kudos to tab author, rate the tab!
1 2 3 4 5
comments
print report bad tab
guest
You may want to rate the tab now too:
select rating
Wanna post a correction for this tab? Suggest correction