Oops, an error
Loading. Please wait.

Youth Gone Wild tab

by Norther
1,954 views 1 this week
no commentswrite comment
1 2 3 4 5
3 more votes to show rating
add to favorites
×
Save as Personal and add changes to this tab that will be seen only by you. Learn more ›
×
You can save this tab as Personal to edit and correct it or add notes. All changes will be seen only by you. Learn more »
launch autoscroll
font size
0
reset
how to read this tab
guitar tuner
edit
Autoscroll
slow
fast
+/-
esc
set tempo
stop
.  - palm mute           /  - slide up to
\  - slide down to       ~  - vibrato
h  - hammer on           b  - Bend
p  - pull off            Suffixes for bend
t  - tap                 f  - full bend    h - half bend
ph - pinched harmonic    q  - quarter bend t - tap bend
*  - see comment         ^  - Hold bend    r release bend
x  - Stuccatto           ~  - vibrato bend
,  - slight palm mute    () - ghost note, sustained note
"  - tremolo note        <> - Trill

Tuning E A D G B E

riff 1

   PLAY THAT UNTIL 0:21 sec
  (play the 5 first powerchord one time, listen to the song)
|-------------------------------------------------------------------|
|-------------------------------------------------------------------|
|-3-3---3-3--------------------------------------1------------------|
|-3-3---3-3--5---(3)h5-3-0-2-5-2~--(3)h5-3-0-3-3-1-5-3-0-3-3-3------|
|-1-1---1-1--5---(3)h5-3-0-2-3-2~--(3)h5-3-0-2-3---5-3-0-2-3-1------|
|------------3------------------------------------------------------|

Riff 2...play that between 0:21 and 0:57 second
|-------------------------------------------------------------------|
|-------------------------------------------------------------------|
|-------------------------------------------------------------------|
|-3-----3-----3-----3-----3-----3-----3-3---------------------------|
|-1-1-1-1-1-1-1-1-1-1-1-1-1-1-1-1-1-1-1-1---------------------------|
|-------------------------------------------------------------------|
    . .   . .   . .   . .   . .   . .   .

|-------------------------------------------------------------------|
|-------------------------------------------------------------------|
|-------------------------------------------------------------------|
|-------------------------------------------------------------------|
|-3-----3-----3-----3-----3-----3-----3-3---------------------------|
|-1-1-1-1-1-1-1-1-1-1-1-1-1-1-1-1-1-1-1-1---------------------------|
    . .   . .   . .   . .   . .   . .   .

|-------------------------------------------------------------------|
|-------------------------------------------------------------------|
|-------------------------------------------------------------------|
|-3-----3-----3-----3-----3-----3-----3-3---------------------------|
|-1-1-1-1-1-1-1-1-1-1-1-1-1-1-1-1-1-1-1-1---------------------------|
|-------------------------------------------------------------------|
    . .   . .   . .   . .   . .   . .   .

|-------------------------------------------------------------------|
|-------------------------------------------------------------------|
|-------------------------------------------------------------------|
|-5-----5-----5-----5-----5-----5-----5-5---------------------------|
|-3-3-3-3-3-3-3-3-3-3-3-3-3-3-3-3-3-3-3-3---------------------------|
|-------------------------------------------------------------------|
    . .   . .   . .   . .   . .   . .   .

|-------------------------------------------------------------------|
|-------------------------------------------------------------------|
|-3---3-----3-----3---3---------3-5---------------------------------|
|-3---3-----3-----3---3h-1----5-3-5-6----------3--------------------|
|-1---1-----1-----1---1h-1----5-1-3-6--5-3-----3--------------------|
|---0---0-0---0-0---0----1-----------------6-5-1--------------------|
    .   . .   . .   .

|-------------------------------------------------------------------|
|-------------------------------------------------------------------|
|---3-----3-----3---3-----------------------------------------------|
|---3-----3-----3---3h-1----5--3p0-3p0------------------------------|
|---1-----1-----1---1h-1----5----------3p0-3p0----------------------|
|-0---0-0---0-0---0----1--------------------------------------------|
  .   . .   . .   .

 at 0:50 return to the first riff until 1:09
|-------------------------------------------------------------------|
|---------------------------------------------------4-4-------------|
|---------------------------------1-----------------3-3-------------|
|-(3)h5-3-0-2-5-2~--(3)h5-3-0-3-3-1--5-3-0-3-3-3----1-1-1-----------|
|-(3)h5-3-0-2-3-2~--(3)h5-3-0-2-3----5-3-0-2-3-1--------1-----------|
|-------------------------------------------------------1-----------|

between 1:09 and 1:23 play the second riff

|-------------------------------------------------------------------|
|-------------------------------------------------------------------|
|-------------------------------------------------------------------|
|-3-----3-----3-----3-----3-----3-----3-3---------------------------|
|-1-1-1-1-1-1-1-1-1-1-1-1-1-1-1-1-1-1-1-1---------------------------|
|-------------------------------------------------------------------|
    . .   . .   . .   . .   . .   . .   .

|-------------------------------------------------------------------|
|-------------------------------------------------------------------|
|-------------------------------------------------------------------|
|-------------------------------------------------------------------|
|-3-----3-----3-----3-----3-----3-----3-3---------------------------|
|-1-1-1-1-1-1-1-1-1-1-1-1-1-1-1-1-1-1-1-1---------------------------|
    . .   . .   . .   . .   . .   . .   .

|-------------------------------------------------------------------|
|-------------------------------------------------------------------|
|-------------------------------------------------------------------|
|-3-----3-----3-----3-----3-----3-----3-3---------------------------|
|-1-1-1-1-1-1-1-1-1-1-1-1-1-1-1-1-1-1-1-1---------------------------|
|-------------------------------------------------------------------|
    . .   . .   . .   . .   . .   . .   .

|-------------------------------------------------------------------|
|-------------------------------------------------------------------|
|-------------------------------------------------------------------|
|-5-----5-----5-----5-----5-----5-----5-5---------------------------|
|-3-3-3-3-3-3-3-3-3-3-3-3-3-3-3-3-3-3-3-3---------------------------|
|-------------------------------------------------------------------|
    . .   . .   . .   . .   . .   . .   .


1:23 to 1:38
|-------------------------------------------------------------------|
|-------------------------------------------------------------------|
|-3---3-----3-----3---3---------3-5---------------------------------|
|-3---3-----3-----3---3h-1----5-3-5-6----------3--------------------|
|-1---1-----1-----1---1h-1----5-1-3-6--5-3-----3--------------------|
|---0---0-0---0-0---0----1-----------------6-5-1--------------------|
    .   . .   . .   .

|-------------------------------------------------------------------|
|-------------------------------------------------------------------|
|---3-----3-----3---3-----------------------------------------------|
|---3-----3-----3---3h-1----5--3p0-3p0------------------------------|
|---1-----1-----1---1h-1----5----------3p0-3p0----------------------|
|-0---0-0---0-0---0----1--------------------------------------------|
  .   . .   . .   .

Now you are at 1:38 and return to the first riff of the song
play that until 1:57
|-------------------------------------------------------------------|
|---------------------------------------------------4-4-------------|
|---------------------------------1-----------------3-3-------------|
|-(3)h5-3-0-2-5-2~--(3)h5-3-0-3-3-1--5-3-0-3-3-3----1-1-1-----------|
|-(3)h5-3-0-2-3-2~--(3)h5-3-0-2-3----5-3-0-2-3-1--------1-----------|
|-------------------------------------------------------1-----------|

Then at 1:57 its the solo still work for the solo if you find it
please corect it for me
|---15f15--1517131512131012-8-10-7-8-5''----------------------------|
|----------------------------------------12131513151715172212-------|
|-------------------------------------------------------------------|
|-------------------------------------------------------------------|
|-------------------------------------------------------------------|
|-------------------------------------------------------------------|

|-------------------------------------------------------------------|
|--8-6-5------------------------------------------------------------|
|--------7-5-4--7f5---5-3------5f----5----5(A.H)--------------------|
|--------------7---7------------------------------------------------|
|-------------------------------------------------------------------|
|-------------------------------------------------------------------|
solo end at 2:11
     (no music only lyrics until 2:18)

  between 2:18 and 2:27
|-------------------------------------------------------------------|
|-------------------------------------------------------------------|
|-3----------------------------------3------------------------------|
|-3-3--5-----------------------------3-3--5-------------------------|
|-1-3--5-----------------------------1-3--5-------------------------|
|---1--3-------------------------------1--3-------------------------|

and play this riff until the end of the song

|-------------------------------------------------------------------|
|---------------------------------------------------4-4-------------|
|---------------------------------1-----------------3-3-------------|
|-(3)h5-3-0-2-5-2~--(3)h5-3-0-3-3-1--5-3-0-3-3-3----1-1-1-----------|
|-(3)h5-3-0-2-3-2~--(3)h5-3-0-2-3----5-3-0-2-3-1--------1-----------|
|-------------------------------------------------------1-----------|

then that the song, the solo is not complete i know if you find it corect
it please!!!


            
            
Suggest correction
Creating personal tab
Creating personal tab
You can edit any tab online and save it as your Personal.

You can edit, replace or remove any tab part or add personal notes – all changes will be seen only by you.

Personal tabs can be accessed anytime from any device, even offline.
Learn more »
Give kudos to tab author, rate the tab!
1 2 3 4 5
comments
print report bad tab
guest
You may want to rate the tab now too:
select rating
Wanna post a correction for this tab? Suggest correction